Oops, an error
Loading. Please wait.

Crawl Tab

version 1
version 1

Whole song

Interactive

9,894 views 9 this week
4 commentsread comments
1 2 3 4 5
x 14
add to favorites
launch autoscroll
font size
0
reset
how to read this tab
guitar tuner
Autoscroll
slow
fast
+/-
esc
set tempo
stop
Help us to improve Ultimate-Guitar.com Take our survey!
×
Author
this is a good song, alkaline trio rules, so go out and buy from here to infirmary
(which this is on)

the only symbol that i use in this tab is ~ which means let it ring out

standard tuning (low-high) EADGBe

intro
{a}
E----------------------------------------
B----------------------------------------
G----------------------------------------
D--6-6-6-6-6-6-6-6--4-4-4-4-2-2-2-2------
A--4-4-4-4-4-4-4-4--0-0-0-0-0-0-0-0------
D----------------------------------------
{b}
E------------------------------------------
B------------------------------------------
G------------------------------------------
D--4-4-4-4-4-4-4-4--6-6-4-4-1-1-2-2--------
A--2-2-2-2-2-2-2-2--0-0-0-0-0-0-0-0--------
E------------------------------------------
{c}
E----------------------------------------
B----------------------------------------
G----------------------------------------
D--6-6-6-6-6-6-6-6--4-4-4-4-2-2-2-2--0~--
A--4-4-4-4-4-4-4-4--0-0-0-0-0-0-0-0--2~--
E------------------------------------0~--

play A&B twice, then go on to finish it with C once
Suggest correction
comments
print report bad tab
4 comments total. Showing first comments.
0 reply
S-series3374 0 Jul 17, 2002 12:00 AM

wheres the rest?u only plat ab once to i tried to play it with the song and it was to much,whats here is 100% though

0 reply
Gaydon 0 Aug 18, 2002 12:00 AM

dude this tab is spot on - i'm so glad there are other trio fans out there as the tab selection is minimal - cheers for the tab - before i was playin it like this

D --7--4--2--4--7--4--2--4--
A --4--2--0--2--4--2--0--2--

same tune but not trio style - good tab

0 reply
kevinXfender 102 Apr 08, 2006 11:54 AM

its Cm Aadd5 E then the 6421 riff. the verse is B Cm A 6421 riff. then the chorus is
------------------------------
------------------------------
---989-4-6-2-2-4-------------
-2-xxx-x-x-2-2-4--------------
-2-767-2-4-0-0-2--------------
-0----------------------------

thats the chords. im too lazy to do the srumm pattern

guest
You may want to rate the tab now too:
select rating
Wanna post a correction for this tab? Suggest correction