Oops, an error
Loading. Please wait.

Crawl Tab

version 3
version 3

Whole song

Interactive

8,194 views 1 this week
no commentswrite comment
1 2 3 4 5
1 last vote to show rating
add to favorites
launch autoscroll
font size
0
reset
how to read this tab
guitar tuner
Autoscroll
slow
fast
+/-
esc
set tempo
stop
Help us to improve Ultimate-Guitar.com Take our survey!
×
Author
Song: Crawl
Band: Alkaline Trio
Album: From Here To Infirmary
Guitarist: Matt Skiba
PM.= palm mute
\= slide down
/= slide up
()= Play at the end of sencond time through
~= ring out

Intro x2
e|----------------------------------------------------------------------|
b|----------------------------------------------------------------------|
g|-1313131313131313\11111111\9-9-9-9/1111111111111111/1313\1111\8-8-9-9-|
d|--x-x-x-x-x-x-x-x\-x-x-x-x\x-x-x-x/-x-x-x-x-x-x-x-x/-x-x\-x-x\x-x-x-x-|
a|-1111111111111111\-9-9-9-9\7-7-7-7/-9-9-9-9-9-9-9-9/1111\-9-9\6-6-7-7-|
e|----------------------------------------------------------------------|

e|---------------------------------------------------------------------|
b|---------------------------------------------------------------------|
g|-1313131313131313\11111111\9-9-9-9-9-9-9-9-9-9-9-9/14141414\13131313-|
d|--x-x-x-x-x-x-x-x\-x-x-x-x\x-x-x-x-x-x-x-x-x-x-x-x/-x-x-x-x\-x-x-x-x-|
a|-1111111111111111\-9-9-9-9\7-7-7-7-7-7-7-7-7-7-7-7/12121212\11111111-|
e|-----------------------------------0-0-0-0-0-0-0-0-------------------|

Verse 1 x1
e|---------------|
b|---------------|
g|-4~----2~------|
d|-4~----2~------|
a|-2~-/4-0~-/2-4-|
e|---------------|

e|------------------------------------|
b|------------------------------------|
g|-44444444-66666666------------------|
d|-44444444-77776666-7777777777777777-|
a|-22222222-44444444-7777777777777777-|
e|-------------------5555555555555555-|
 PM........ ........ ........
Intro x1
e|----------------------------------------------------------------------|
b|----------------------------------------------------------------------|
g|-1313131313131313\11111111\9-9-9-9/1111111111111111/1313\1111\8-8-9-9-|
d|--x-x-x-x-x-x-x-x\-x-x-x-x\x-x-x-x/-x-x-x-x-x-x-x-x/-x-x\-x-x\x-x-x-x-|
a|-1111111111111111\-9-9-9-9\7-7-7-7/-9-9-9-9-9-9-9-9/1111\-9-9\6-6-7-7-|
e|----------------------------------------------------------------------|

e|---------------------------------------------------------------------|
b|---------------------------------------------------------------------|
g|-1313131313131313\11111111\9-9-9-9-9-9-9-9-9-9-9-9/14141414\13131313-|
d|--x-x-x-x-x-x-x-x\-x-x-x-x\x-x-x-x-x-x-x-x-x-x-x-x/-x-x-x-x\-x-x-x-x-|
a|-1111111111111111\-9-9-9-9\7-7-7-7-7-7-7-7-7-7-7-7/12121212\11111111-|
e|-----------------------------------0-0-0-0-0-0-0-0-------------------|

verse 2 x2
e|------------------------------------------|
b|------------------------------------------|
g|-44444444-66666666-2222-16-16-14-14-13-13-|
d|-44444444-77776666-2222--x--x--x--x--x--x-|
a|-22222222-44444444-0000-14-14-12-12-11-11-|
e|------------------------------------------|

e|-------------------------------------------------------|
b|-------------------------------------------------------|
g|-44444444-66666666-22222222---------(4444444444444444)-|
d|-44444444-66666666-2222222244442222-(4444444444444444)-|
a|-22222222-44444444-0000000000000000-(2222222222222222)-|
e|-------------------------------------------------------|

Chorus x2
e|------------------------------------------------------------------------|
b|------------------------------------------------------------------------|
g|----------99988899-9999999-66666666\44444444/6666\4444\22222222---------|
d|-22222222-77777777-xxxxxxx-66666666\xxxxxxxx/xxxx\xxxx\2222222244446666-|
a|-22222222----------7777777-44444444\22222222/4444\2222\0000000000000000-|
e|-00000000----------0000000----------------------------------------------|

e|---------------------|
b|---------------------|
g|-(99999999888899999)-|
d|-(xxxxxxxxxxxxxxxxx)-|
a|-(77777777777777777)-|
e|---------------------|

Bridge x2
e|------------------------------------|
b|------------------------------------|
g|-8-8-9-9-----9-9-8-8-11-11----------|
d|-9-9-9-9-9-9-9-9-9-9-11-11-22222222-|
a|-6-6-7-7-9-9-7-7-6-6--9--9-22222222-|
e|---------7-7-0-0-----------00000000-|

verse 3 x2
e|------------------------------------|
b|------------------------------------|
g|-44444444-66666666-2222222222222222-|
d|-44444444-77776666-2222222222222222-|
a|-22222222-44444444-0000000000000000-|
e|------------------------------------|
PM ........ ........ ................

e|-------------------------------------------------------|
b|-------------------------------------------------------|
g|-44444444-66666666-22222222---------(4444444444444444)-|
d|-44444444-66666666-2222222244442222-(4444444444444444)-|
a|-22222222-44444444-0000000000000000-(2222222222222222)-|
e|-------------------------------------------------------|
 PM........ ........ ................ (........)

Chorus x2
e|------------------------------------------------------------------------|
b|------------------------------------------------------------------------|
g|----------999\888999999999-66666666\44444444/6666\4444\22222222---------|
d|-22222222-xxx\xxxxxxxxxxxx-xxxxxxxx\xxxxxxxx/xxxx\xxxx\2222222244446666-|
a|-22222222-777\666777777777-44444444\22222222/4444\2222\0000000000000000-|
e|-00000000----------0000000----------------------------------------------|

e|------------------------|
b|------------------------|
g|-(99999999888899999-9~)-|
d|-(xxxxxxxxxxxxxxxxx-9~)-|
a|-(77777777777777777-7~)-|
e|-(------------------0~)-|

Outro (no guitar for a little while) x1
e|---------------------------------------------|
b|---------------------------------------------|
g|-99999999-88888888-99999999/1111111111111111-|
d|-99999999-99999999-xxxxxxxx/-x-x-x-x-x-x-x-x-|
a|-77777777-66666666-77777777/-9-9-9-9-9-9-9-9-|
e|---------------------------------------------|

e|-00000000222222220000000022222222-0~-|
b|-00000000000000000000000000000000-0~-|
g|----------------------------------9~-|
d|----------------------------------9~-|
a|----------------------------------7~-|
e|----------------------------------0~-|

Suggest correction
Give kudos to tab author, rate the tab!
1 2 3 4 5
comments
print report bad tab
guest
You may want to rate the tab now too:
select rating
Wanna post a correction for this tab? Suggest correction