Oops, an error
Loading. Please wait.

Crimson Tab

9,382 views 9 this week
11 commentsread comments
1 2 3 4 5
accurate
x 7
add to favorites
launch autoscroll
font size
0
reset
how to read this tab
guitar tuner
Tab Pro tools
  • play this tab
  • loop segment
  • change instrument
  • show fretboard
  • metronome
×
Best way to learn
"Crimson"
Autoscroll
slow
fast
+/-
esc
set tempo
stop
Contributor
Alkaline Trio - Crimson

I'm taking no credit for this because its from everyone who devoted their time to tab
these songs out one by one but didn't care enough to put them all together for all them
lazy asses. if you want to talk shit or go out on a date (ladies only please) my email
is turkeyrioter44@yahoo.com

----------------------------------------------------------------------------
			     TIME TO WASTE - Alkaline Trio
----------------------------------------------------------------------------


Tuning: Standard

   Intro : 
e|----------|--------------------------------------------------------------|
B|----------|--------------------------------------------------------------|
G|----------|---------------14-14-14-14--13-13-13--11-11-11-11-------------|
D|--4-------|-----4-4-4-4----x--x--x--x---x--x--x---x--x--x--x-------------|
A|--4-(Hold)|-----4-4-4-4---12-12-12-12--11-11-11---9--9--9--9-------------|
E|--2-------|-----2-2-2-2--------------------------------------------------|

e|-------------------------------------------------------------------------|
B|-------------------------------------------------------------------------|
G|--7-7-7-7---14-14-14-14--13-13-13--7-7-7-7-------------------------------|
D|--7-7-7-7----x--x--x--x---x--x--x--x-x-x-x---------(Repeat)--------------|
A|--5-5-5-5---12-12-12-12--11-11-11--5-5-5-5-------------------------------|
E|-------------------------------------------------------------------------|

   Verse:
e|-------------------------------------------------------------------------|
B|-------------------------------------------------------------------------|
G|-------------------------------------------------------------------------|
D|--4--------------------------------------------------2----4----2---------|
A|--4-(Hold)-------------------------------------------2----4----2---------|
E|--2--------------------------------------------------0----2----0---------|
  "There's someone down below blowing you a kiss..."

e|-------------------------------------------------------------------------|
B|-------------------------------------------------------------------------|
G|------------------------------------------7----9----7--------------------|
D|--4----6----7----4----2----4----6----7----7----9----7--------------------|
A|--4----6----7----4----2----4----6----7----5----7----5--------------------|
E|--2----4----5----2----0----2----4----5-----------------------------------|


    Chorus: 
e|--------------------------------------------------------------------------|
B|--------------------------------------------------------------------------|
G|--------------------------------------------------7-7-7-7-7-7-7-7---------|
D|7-7-7-7-7-7-7-7-7-7-7-7-7-7-7-7--4-4-4-4-4-4-4-4--7-7-7-7-7-7-7-7-(Repeat)|
A|7-7-7-7-7-7-7-7-7-7-7-7-7-7-7-7--4-4-4-4-4-4-4-4--5-5-5-5-5-5-5-5---------|
E|5-5-5-5-5-5-5-5-5-5-5-5-5-5-5-5--2-2-2-2-2-2-2-2--------------------------|
               "You had time to waste..."

e|-------------------------------------------------------------------------|
B|-------------------------------------------------------------------------|
G|-----------------------------------------------------------7-----7-------|
D|-7-7-7-7-7-7-7-7-7-7-7-7-7-7-7-7--4-4-4-4-4-4-4-4----------7-----7-------|
A|-7-7-7-7-7-7-7-7-7-7-7-7-7-7-7-7--4-4-4-4-4-4-4-4----------4-----5-------|
E|-5-5-5-5-5-5-5-5-5-5-5-5-5-5-5-5--2-2-2-2-2-2-2-2------------------------|
             "You've got guts to spill..."

  Chorus Outro:
e|-------------------------------------------------------------------------|
B|-------------------------------------------------------------------------|
G|-------------------9-9-9-9-9-9-9-9---11-11-11-11-11-11-11-11-------------|
D|-4-4-4-4-4-4-4-4---x-x-x-x-x-x-x-x----x--x--x--x--x--x--x--x-------------|
A|-4-4-4-4-4-4-4-4---7-7-7-7-7-7-7-7----9--9--9--9--9--9--9--9-------------|
E|-2-2-2-2-2-2-2-2---------------------------------------------------------|

  Pre-2nd Verse: 
e|-------------------------------------------------------------------------|
B|-------------------------------------------------------------------------|
G|-------------------------------------------------------------------------|
D|-4----6----2-------------------------------------------------------------|
A|-4----6----2-------------------------------------------------------------|
E|-2----4----0-------------------------------------------------------------|

   Interlude:
e|-------------------------------------------------------------------------|
B|-------------------------------------------------------------------------|
G|-------------------------------------------------------------------------|
D|--4---------------4-4-4-4-4-4--------------------------------------------|
A|--4--(Hold)-------4-4-4-4-4-4--------------------------------------------|
E|--2---------------2-2-2-2-2-2--------------------------------------------|

e|-------------------------------------------------------------------------|
B|-------------------------------------------------------------------------|
G|------------14-14-14-14--13-13-13--11-11-11-11---------------------------|
D|--4-4-4-4----x--x--x--x---x--x--x---x--x--x--x---------------------------|
A|--4-4-4-4---12-12-12-12--11-11-11---9--9--9--9---------------------------|
E|--2-2-2-2----------------------------------------------------------------|

e|-------------------------------------------------------------------------|
B|-------------------------------------------------------------------------|
G|--7-7-7-7---14-14-14-14--13-13-13--7-7-7-7-------------------------------|
D|--7-7-7-7----x--x--x--x---x--x--x--x-x-x-x-------------------------------|
A|--5-5-5-5---12-12-12-12--11-11-11--5-5-5-5-------------------------------|
E|-------------------------------------------------------------------------|

e|-------------------------------------------------------------------------|
B|-------------------------------------------------------------------------|
G|--8-8-8-8---14-14-14-14--13-13-13--11-11-11-11---------------------------|
D|--8-8-8-8----x--x--x--x---x--x--x---x--x--x--x---------------------------|
A|--6-6-6-6---12-12-12-12--11-11-11---9--9--9--9---------------------------|
E|-------------------------------------------------------------------------|

e|-------------------------------------------------------------------------|
B|-------------------------------------------------------------------------|
G|--7-7-7-7---14-14-14-14----9-----7---------------------------------------|
D|--7-7-7-7----x--x--x--x----9-----7---------------------------------------|
A|--5-5-5-5---12-12-12-12----7-----5---------------------------------------|
E|-------------------------------------------------------------------------|

------------------------------
Song Order:                  
Intro
Verse
Chorus
Chorus Outro
Pre-2nd Verse
Verse
Chorus
Chorus Outro
Interlude
Chorus
-------------------------------


| /  slide up
| \  slide down
| h  hammer-on
| p  pull-off
| ~  vibrato
| +  harmonic
| x  Mute note
=============================================================================
----------------------------------------------------------------------------
			     Poison
----------------------------------------------------------------------------

Poison

Intro/Riff:
e|-------------------------------------------------|
B|----7-6-5---------6/7/6-5---------6/7/6-5--------|
G|---------7---4-7---------7-6-4-7---------7/6--4--|
D|-------------------------------------------------|
A|-------------------------------------------------|
E|-------------------------------------------------|

Verse:
e|--------------------------------------|
B|--------------------------------------|
G|-4-4-4-4--2-2-2-2---------------------|
D|-4-4-4-4--2-2-2-2--4-4-4-4--5-5-5-5---| x4
A|-2-2-2-2--0-0-0-0--4-4-4-4--5-5-5-5---|
E|-------------------2-2-2-2--3-3-3-3---|

Verse2:
e|---------------|-----------------------------|
B|---------------|-----------------------------|
G|---------------|-7-7-7-7---------------------|
D|-7-7-7-7-7-7-7-|-7-7-7-7--7-7-7-7--5-5-5-5---| x3
A|-7-7-7-7-7-7-7-|-5-5-5-5--7-7-7-7--5-5-5-5---|
E|-5-5-5-5-5-5-5-|----------5-5-5-5--3-3-3-3---|

e|--------------------|
B|--------------------|
G|--------------------|
D|-4-4-4-4-4-4-4-4-4--|
A|-4-4-4-4-4-4-4-4-4--|
E|-2-2-2-2-2-2-2-2-2--|

Riff again then back to Verse:

Chorus:
e|-------------------------------------|
B|-------------------------------------|
G|-4-4-4-4--7-7-7-7--------------------|
D|-4-4-4-4--7-7-7-7--5-5-5-5--7-7-7-7--| x3
A|-2-2-2-2--5-5-5-5--5-5-5-5--7-7-7-7--|
E|-------------------3-3-3-3--5-5-5-5--|

Chorus2:
e|------------------------------------------------|
B|------------------------------------------------|
G|-4-4-4-4--7-7-7-7-------------------------------|
D|-4-4-4-4--7-7-7-7--4-4-4-4-4-4-4--5-5-5-5-5-5-5-|
A|-2-2-2-2--5-5-5-5--4-4-4-4-4-4-4--5-5-5-5-5-5-5-|
E|-------------------2-2-2-2-2-2-2--3-3-3-3-3-3-3-|

Back To Verse2:

Ends on chorus1 and Riff

End
e|----|
B|----|
G|-4--|
D|-4--|
A|-2--|
E|----|
 
----------------------------------------------------------------------------
			          Burn
----------------------------------------------------------------------------


Intro:

----------------------------------------------------------------------|
----------------------------------------------------------------------|
-----------------------------------88--99-----------------------------|
-----66--66--44--22--------66--66--88--99-----------------------------|X3
-----66--66--44--22--------66--66--66--77-----------------------------|
-----44--44--22--00--------44--44-------------------------------------|


Intro End:

---------------------------------------------------------------------------|
---------------------------------------------------------------------------|
---------------------------------------------------------------------------|
-----66--66--66------------------------------------------------------------|
-----66--66--66------------------------------------------------------------|
-----44--44--44------------------------------------------------------------|

Verse: (same as intro)

----------------------------------------------------------------------|
----------------------------------------------------------------------|
-----------------------------------88--99-----------------------------|
-----66--66--44--22--------66--66--88--99-----------------------------|X2
-----66--66--44--22--------66--66--66--77-----------------------------|
-----44--44--22--00--------44--44-------------------------------------|

Verse End:

----------------------------------------------------------------------|
----------------------------------------------------------------------|
----------------------------------------------------------------------|
-----66--66--66---66666XXX--------------------------------------------|X3
-----66--66--66---66666XXX--------------------------------------------|
-----44--44--44---44444XXX--------------------------------------------|
                    Intending to...
Chorus:

-----------------------------------------------------------------------|
-----------------------------------------------------------------------|
-----------------------------------------------------------------------|
--22222222-------------6666---4444-------------------------------------|X3
--22222222-------------6666---4444-------------------------------------|
--00000000-------------4444---2222-------------------------------------|
burn. Pretending to fight and everyone...

Chorus End:

-----------------------------------------------------------------------|
-----------------------------------------------------------------------|
-----------------------------------------------------------------------|
--22222222-----4444----5555--------------------------------------------|
--22222222-----4444----5555--------------------------------------------|
--00000000-----2222----3333--------------------------------------------|


After-Chorus (Pre Verse)

-----------------------------------------------------------------------
-----------------------------------------------------------------------
---------------------------------------------------8-X-8-X-8/9---------
----66---66---------66---66---------66---66--------8-X-8-X-8/9-(hold)--
----66---66---------66---66---------66---66--------6-X-6-X-6/7---------
----44---44---------44---44---------44---44----------------------------

 
Verse 2:  Same as First
Chorus 2: Same as First

Bridge:

Now, I'm tabbing this out just in case you don't have a piano on you.  Well,
that and the fact that it's used with guitar after the 3rd chorus.

-----------------------------------------------------------------------|
-----------------------------------------------------------------------|
--------------4--------------------------------------------------------|
---6----------4---------------2------4---------------------------------|
---6----------2---------------2------4---------------------------------|
---4--------------------------0------2---------------------------------|
Like hell we are anxiously waiting


------------------------------------------------------------------------|
------------------------------------------------------------------------|
--------------4---------------------------------------------------------|
---6----------4---------------2-----------------------------------------|
---6----------2---------------2-----------------------------------------|
---4--------------------------0-----------------------------------------|
Like hell burning silently strong


-----------------------------------------------------------------------|
-----------------------------------------------------------------------|
--------------4--------------------------------------------------------|
---6----------4---------------2------4---------------------------------|
---6----------2---------------2------4---------------------------------|
---4--------------------------0------2---------------------------------|
Somehow we fell down by the wayside


-----------------------------------------------------------------------|
-----------------------------------------------------------------------|
-----------------------------------------------------------------------|
---2----------------------4--------------------------------------------|
---2----------------------4--------------------------------------------|
---0----------------------2--------------------------------------------|
And somehow this hell is home....as we...

Chorus:

-----------------------------------------------------------------------|
-----------------------------------------------------------------------|
-----------------------------------------------------------------------|
--22222222-------------6666---4444-------------------------------------|X3
--22222222-------------6666---4444-------------------------------------|
--00000000-------------4444---2222-------------------------------------|
burn. Pretending to fight and everyone...

Chorus End:

-----------------------------------------------------------------------|
-----------------------------------------------------------------------|
-----------------------------------------------------------------------|
--22222222-----4444----5555--------------------------------------------|
--22222222-----4444----5555--------------------------------------------|
--00000000-----2222----3333--------------------------------------------|


-----------------------------------------------------------------------|
-----------------------------------------------------------------------|
--------------4444-----------------------------------------------------|
---6666-------4444------------2222------4444---------------------------|
---6666-------2222------------2222------4444---------------------------|
---4444-----------------------0000------2222---------------------------|
Like hell we are anxiously waiting


------------------------------------------------------------------------|
------------------------------------------------------------------------|
--------------4444------------------------------------------------------|
---6666-------4444------------2-----------------------------------------|
---6666-------2222------------2-----------------------------------------|
---4444-----------------------0-----------------------------------------|
Like hell burning silently strong


-----------------------------------------------------------------------|
-----------------------------------------------------------------------|
--------------4444-----------------------------------------------------|
---6666-------4444------------2222------4444---------------------------|
---6666-------2222------------2222------4444---------------------------|
---4444-----------------------0000------2222---------------------------|
Somehow we fell down by the wayside


-----------------------------------------------------------------------|
-----------------------------------------------------------------------|
-----------------------------------------------------------------------|
---2222222---------------44444444--------------------------------------|
---2222222---------------44444444--------------------------------------|
---0000000---------------22222222--------------------------------------|
And somehow this hell is home


-----------------------------------------------------------------------|
-----------------------------------------------------------------------|
-----------------------------------------------------------------------|
---2222222---------------4444--5555------------------------------------|
---2222222---------------4444--5555------------------------------------|
---0000000---------------2222--3333------------------------------------|
Right now this hell is my home


Outro:

--------------------------|
--------------------------|
--------------------------|
--66-XXXX-66-XXXX--2------| Repeat this until while song fades out.
--66-XXXX-66-XXXX--2------|
--44-XXXX-44-XXXX--0------|

----------------------------------------------------------------------------
			        Mercy me
----------------------------------------------------------------------------

 
 INTRO guitar 1
E|-------------------------------------|
B|-------------------------------------|
G|-9-6-7-9-7-6-7-9-7-6-7-6-7-----------|
D|-7-7-7-7-7-7-7-7-7-7-7-7-7-----------| x 2
A|-------------------------5-----------|
E|-------------------------------------|

INTRO guitar 2
E|-------------------------------------|
B|-------------------------------------|
G|-9-11-7------------------------------|
D|-7-11-7------------------------------| x 2
A|-0--9-5------------------------------|
E|-------------------------------------|

VERSE
E|-------------------------------------|
B|-------------------------------------|
G|-9-9-6-7-11-7------------------------|
D|-7-7-7-7-11-7------------------------| x 4 
A|----------9-5------------------------|
E|-------------------------------------|

INTRO X 2

VERSE x 2

CHORUS
E|-------------------------------------|
B|-------------------------------------|
G|-11-7---9----------------------------|
D|-11-7-7-9----------------------------| X 2
A|--9-5-7-7----------------------------|
E|------5------------------------------|

CHORUS 2
     (i)     (ii)     (iii)
E|--------|------|---------------------|
B|--------|------|---------------------|
G|-11-9-7-|---9--|---7-6-4-------------|
D|-11-9-7-|-7-9--|-7-7-6-4-------------|
A|--9-7-5-|-7-7--|-7-5-4-2-------------|
E|--------|-5----|-5-------------------|

part (i) x 3 then part (ii) x 1 then part (iii) x 1

VERSE x 2

CHORUS 1 x 2
CHORUS 2 x 1

BRIDGE
E|-------------------------------------|
B|-------------------------------------|
G|-9-6-7-9-7-6-7-9-7-6-7-6-------------|
D|-7-7-7-7-7-7-7-7-7-7-7-7-------------| not sure how many times its played
A|-------------------------------------| just work out from the song
E|-------------------------------------|

CHORUS 2




end on
E|---|
B|---|
G|---|
D|-7-| 
A|-7-|
E|-5-|


----------------------------------------------------------------------------
			          Deathbed
----------------------------------------------------------------------------


INTRO
e-----------------------------------------|
b-----------------------------------------|
g-10-10-------------10-11-11-11-11--------|
d---------11-11-88-----11-11-11-11--------|
a-----------------------------------------|
e-----------------------------------------|


verse #1 -

e-----------------------------------------------------------------|
b-----------------------------------------------------------------|
g----1111-66-88-----1111-66--------1111-66-88---------------------|
d-88-1111-66-88--88-1111-66-66--88-1111-66-88--10101011111110-----|
a-88-9-9--44-66--88-9-9--44-66--88-9-9--44-66--8-8-8-8-8-8-8------|
e-66-------------66---------44--66--------------------------------|

chorus -
  (i)                                 (ii)
e---------------------------------|----------------------------------------|
b---------------------------------|----------------------------------------|
g-11111111111111---------66666666-|-1111111111111111-6666666---------------|
d-11111110101111-8888888-66666666-|-1111111010111111-6666666-66666666------|
a-9-9-9-9-9-9-9--8888888-44444444-|-9-9-9-9-9-9-9-9--4444444-66666666------|
e----------------6666666----------|--------------------------44444444------|

repeat (i)
then end of chorus is -

e---------------------------------------------------|
b---------------------------------------------------|
g-1111111111111111----------------------------------|
d-1111111010111111-33333333-44444444-66666666-------|
a-9-9-9-9-9-9-9-9--33333333-44444444-66666666-------|
e------------------11111111-22222222-44444444-------|

breakdown -

e---------------------------------------------|----------------------------------|
b---------------------------------------------|----------------------------------|
g-666-8-6-5-6-666-8-6-5-6-6666666-8888888-----|-8888888--------------------------|
d---------------------------------------------|-8888888-4444444-6666666----------|
a---------------------------------------------|-6666666-4444444-6666666----------|
e---------------------------------------------|-6666666-2222222-4444444----------|

CHORUS

----------------------------------------------------------------------------
			       Settle for Satin
----------------------------------------------------------------------------


INTRO
E----------------------------------------------------------------|
B-10101010-12121212-13131313-121212121212-88888888-666666-555555-|
G----------------------------------------------------------------|
D----------------------------------------------------------------|
A----------------------------------------------------------------|
E----------------------------------------------------------------|

E----------------------------------------------------------------|
B-10101010-12121212-13131313-121212-13131313-12121212-1313131313-|
G----------------------------------------------------------------|
D----------------------------------------------------------------|
A----------------------------------------------------------------|
E----------------------------------------------------------------|

E----------------------------------------------------------------|
B-10101010-12121212-13131313-121212121212-88888888-666666-555555-|
G----------------------------------------------------------------|
D----------------------------------------------------------------|
A----------------------------------------------------------------|
E----------------------------------------------------------------|

E----------------------------------------------------------------|
B-10101010-12121212-13131313-121212-1717171717-181818-1515151515-|
G----------------------------------------------------------------|
D----------------------------------------------------------------|
A----------------------------------------------------------------|
E----------------------------------------------------------------|

VERSE
E-----|
B-----|
G--2--|
D--2--|
A--0--|
E-----|

PRE CHORUS
E----------------------|
B----------------------|
G--2-------------------|
D--2--5--3-------------| x 2
A--0--5--3-------------|
E-----3--1-------------|

CHORUS
E----------------------|
B----------------------|
G--2--5----------------|
D--2--5--3--5----------| x 4
A--0--3--3--5----------|
E--------1--3----------|

VERSE

PRE CHORUS x 2 

CHORUS x 4

INTERLUDE
E----------------------|
B----------------------|
G--9--10--7--9--10-----|
D--7--10--7--9--10-----| x 3
A--0---8--5--7---8-----|
E----------------------|

CHORUS x 4

END ON
E-----|
B-----|
G--2--|
D--2--|
A--0--|
E-----|

----------------------------------------------------------------------------
			          Sadie
----------------------------------------------------------------------------

Standard Tuning

Intro/Verses
e|------------------------------------------------------------|
B|------------------------------------------------------------|
G|------------------------------------------------------------|
D|9--9--9--10-10-10-9--10-9-9-9-10-10-10-9-10-9-9-9-9-9-9-9-9-|
A|10-10-10-10-10-10-10-10-0-0-0-0--0--0--0--0-7-7-7-7-7-7-7-7-|
E|------------------------------------------------------------|

  ---------------------|
  ---------------------|
  ---------------------|
  -10-10-10-10-10-9-9-9|
  -7--7--7--7--7--7-7-7|
  ---------------------|

e|------------------------------------------------------------|
B|------------------------------------------------------------|
G|------------------------------------------------------------|
D|9--9--9--10-10-10-9--10-9-9-9-10-10-10-9-10-9-9-9-9-9-9-9-9-|
A|10-10-10-10-10-10-10-10-0-0-0-0--0--0--0--0-7-7-7-7-7-7-7-7-|
E|------------------------------------------------------------|

  ---------------------|
  ---------------------|
  ---------------------|
  -9-9-9-9-9-7-7-7-----|
  -7-7-7-7-7-7-7-7-----|
  ---------------------|


Choruses (2nd Chorus is 1/3 longer, but played the same)
e|--------|      |---------------------------|
B|--------|      |---------------------------|
G|-5------| then |---------5-----------7-----|
D|-5(X16)-|      |---2-----5(X8)-5-----7(X8)-|
A|-3------|      |---2(X8)-3-----5(X8)-5-----|
E|--------|      |---0-----------3-----------|


Bridge:
solo breakdown thing played over bass
e|-------------------------------------------------|
B|---8---------------8---8-12--12~~~---7-8echo-----|
G|-7---7---------------7---------------------------|
D|-------9-----9~~~--------------------------------|
A|-------------------------------------------------|
E|-------------------------------------------------|
Breakout  (Whoa!!)
e|---------------------|
B|---------------------|
G|-------------5-------|
D|-5-----2-----5(X8)---|
A|-5(X8)-2(X8)-3-------|
E|-3-----0-------------|

after Matt's Whoas it goes back to the chorus chords with this solo on top
e|-----------------------------------------------------------------------|
B|-8~8----------------15-15-15-13-13-12~~-(X3)-15-15-15------------------|
G|-----7-------(X4)-------------------------------------12-12-14~~-------|
D|-------10--9-----------------------------------------------------------|
A|-----------------------------------------------------------------------|
E|-----------------------------------------------------------------------|

Thats about it, heres the song flow:
I
V
C
V
C
Breakdown
Breakout
Chorus w/ solo
I

----------------------------------------------------------------------------
			          Fall Victim
----------------------------------------------------------------------------


INTRO
e|----------------------------------|
B|----12-10-------------------------|
G|--9--9--7-------------------------|
D|--7-------------------------------| x
A|----------------------------------|
E|----------------------------------|

VERSE
e|----------------------------------|
B|----------------------------------|
G|-----7----------------------------|
D|--4--7--7-------------------------| x 3
A|--4--5--7-------------------------|
E|--2-----5-------------------------|

END OF VERSE
e|----------------------------------|
B|----------------------------------|
G|-----7--9--7----------------------|
D|--4--7--9--7----------------------| x 1
A|--4--5--7--5----------------------|
E|--2-------------------------------|

CHORUS
    (i)        (ii)
e|----------|-----------------------|   play part (i)x 2 then part (ii) x 2
B|----------|-----------------------|
G|-----6--7-|--9--6--7--------------|
D|--7--6--7-|--7--x--x--------------|
A|--7--4--5-|--0--4--5--------------|
E|--5-------|-----------------------|

VERSE

END OF VERSE x 1

CHORUS

VERSE

BRIDGE
e|----------------------------------|
B|----------------------------------|
G|--6--7--9--7--6--7--9--4--9-------|
D|--x--x--x--x--x--x--7--x--7-------| thats the notes but i think the order
A|--4--5--7--5--4--5--0--2--0-------| might be wrong so try and work it out
E|----------------------------------| from the notes there, its not overly
                                      wrong though.

CHORUS

BRIDGE


----------------------------------------------------------------------------
			      I Was A Prayer
----------------------------------------------------------------------------


Ring Note
e|---------------------------------------|
B|---------------------------------------|
G|---------------------------------------|
D|--5~-----------------------------------|
A|--5~-----------------------------------|
E|--3~-----------------------------------|


Riff (x2)
e|---------------------------------------|
B|---------------------------------------|
G|---------------------------------------|
D|--0-------2--0-------------------------|
A|----2--5--------3--2-----2--3--2--3----|
E|----------------------0~---------------|


Verse (x2)
e|---------------------------------------|
B|---------------------------------------|
G|-------------------5-------------------|
D|--5--------2-------5-(x8)--5-----------|
A|--5-(x32)--2-(x8)--3-------5-(x16)-----|
E|--3--------0---------------3-----------|
    *        *       *       *lighten up on PM on last 4 strums


Chorus
e|---------------------------------------|
B|---------------------------------------|
G|----------5---------------7------------|
D|--2-------5-(x8)--5-------7-(x8)-------|
A|--2-(x8)--3-------5-(x8)--5------------|
E|--0---------------3--------------------|


Chorus Outro
e|---------------------------------------|
B|---------------------------------------|
G|----------5-------7--------------------|
D|--2-------5-(x8)--7-(x32)--------------|
A|--2-(x8)--3-------5--------------------|
E|--0------------------------------------|


Bridge (x3)
e|---------------------------------------|
B|---------------------------------------|
G|----------5---------------7------------|
D|--2-------5-(x8)--5-------7-(x8)-------|
A|--2-(x8)--3-------5-(x8)--5------------|
E|--0---------------3--------------------|


Bridge Outro
e|---------------------------------------|
B|---------------------------------------|
G|----------5-------7--------------------|
D|--2-------5-(x8)--7-(x32)--------------|
A|--2-(x8)--3-------5--------------------|
E|--0------------------------------------|





End Note
e|---------------------------------------|
B|---------------------------------------|
G|---------------------------------------|
D|--5~-----------------------------------|
A|--5~-----------------------------------|
E|--3~-----------------------------------|


Song order:
Ring Note
Riff (x2)
Ring Note
Verse (x2)
Chorus
Chorus Outro
Riff (x2)
Ring Note
Verse (x2)
Chorus
Chorus Outro
Riff (x2)
Bridge (x3)
Bridge OUtro
End Note

----------------------------------------------------------------------------
			  Prevent This Tragedy
----------------------------------------------------------------------------


intro -

violin tabbed for guitar:

e-13-12----10------------------------|
b-------10----13-10-11-10-8-10-------|
g------------------------------------|
d------------------------------------|
a------------------------------------|
e------------------------------------|

chords played under intro :

e---------------------------------|---------------------------------|
b---------------------------------|---------------------------------|
g-77777777------------------------|-77777777-555555555-333333333----|
d-77777777-77777777-888888888-----|-77777777-555555555-333333333----|
a-55555555-88888888-888888888-----|-55555555-333333333-111111111----|
e----------55555555-666666666-----|---------------------------------|

play all again for verse, but palm-muted

and before chorus go to

e-------------------------------|
b-------------------------------|
g-77777777-3333333-55555555-----|
d-77777777-3333333-55555555-----|
a-55555555-1111111-33333333-----|
e-------------------------------|
  p.m..... ....... ........


chorus :

"down..." (x4)
e-------------------------------|------------------|
b-------------------------------|------------------|
g---------5555555---------------|-55555555---------|
d-3333333-5555555--------888888-|-55555555---------|
a-3333333-3333333-888888-888888-|-33333333---------|
e-1111111---------555555-666666-|------------------|

back to intro/verse and chorus again.

breakdown/bridge -

e-------------------------|
b-6666-5555-3333----------|
g-7777-7777-7777----------|
d-------------------------|
a-------------------------|
e-------------------------|

play over, then palm mute
then :

e---------------------|
b---------------------|
g-33333333333333333---|
d-33333333333333333---|
a-11111111111111111---|
e---------------------|

pick scrape, then you're back into in the chorus again

then after last time play....

e---------------------------------------------|
b---------------------------------------------|
g-333333333-55555555-7------------------------|
d-333333333-55555555-7------------------------|
a-111111111-33333333-5-(let ring)-------------|
e---------------------------------------------|

----------------------------------------------------------------------------
			          Back to Hell
----------------------------------------------------------------------------


INTRO
e------------------------------------------------------|
b------------------------------------------------------|
g--14-13-16-14-13-14-13----14-13-16-14-13-14-13-9-6-7--|
d---x--x--x--x--x--x--x-11--x--x--x--x--x--x--x-x-x-x--|
a--12-11-14-12-11-12-11--x-12-11-14-12-11-12-11-7-4-5--|
e------------------------9-----------------------------|

PRE VERSE

e-----------------------------------------|
b-----------------------------------------|
g--6-7------------------------------------|
d--x-x------------------------------------| x 4 
a--4-5------------------------------------|
e-----------------------------------------|

VERSE
e-----------------------------------------|
b-----------------------------------------|
g--------7--------7-----------------------|
d--4--4--7--2--4--7--2--------------------|
a--4--4--5--2--4--5--2--------------------|
e--2--2-----0--2-----0--------------------|

PRE VERSE

VERSE

PRE VERSE

CHORUS
e-----------------------------------------|
b-----------------------------------------|
g-----7-----------------------------------|
d--4--7--7--2-----------------------------| x 2
a--4--5--7--2-----------------------------|
e--2-----5--0-----------------------------|

PRE VERSE

CHORUS

BRIDGE
         (i)              (ii)   (iii) (iv)
e---------------------|---------|----|------|
b---------------------|---------|----|------|
g-6-7-6-7-6-7-13-14-16|-14-13-11|-6-7|--6---|
d-X-X-X-X-X-X--X--X--X|--x--x--x|-x-x|--x---|
a-4-5-4-5-4-5-11-12-14|-12-11--9|-4-5|--4---|
e---------------------|---------|----|------|

PLAY (i)x 2 (ii)x1 (iii) x 4 (iv)x1

CHORUS

PRE VERSE


----------------------------------------------------------------------------
			          Your Neck
----------------------------------------------------------------------------


WORK OUT STRUMMING PATTERNS BY LISTENING TO THE SONG, ITS NOT HARD

INTRO/CHORUS
e|---------------------------------------|
B|---------------------------------------|
G|---------------------------------------|
D|--5--5--2--5--5--7--5--5---------------|
A|--5--5--2--2--3--5--3--2---------------|
E|--3--2--0------------------------------|


PRE VERSE
e|---------------------------------------|
B|---------------------------------------|
G|--9--7--5--4---------------------------|
D|--x--x--x--x---------------------------| x 3
A|--7--5--3--2----------------------------|
E|---------------------------------------|

END OF PRE VERSE
e|---------------------------------------|
B|---------------------------------------|
G|--5--7--8------------------------------|
D|--x--x--8------------------------------| x 1
A|--3--5--6------------------------------|
E|---------------------------------------|


VERSE
e|---------------------------------------|
B|---------------------------------------|
G|-----5--7--5---------------------------|
D|--2--5--7--5---------------------------| x 3
A|--2--3--5--3---------------------------|
E|--0------------------------------------|

END OF VERSE
e|---------------------------------------|
B|---------------------------------------|
G|--5--7--8------------------------------|
D|--5--7--8------------------------------| x 1
A|--3--5--6------------------------------|
E|---------------------------------------|

PRE VERSE X 2

VERSE x 3

END OF VERSE X 1

CHORUS X 1

BRIDGE, let notes ring first time then strum
e|---------------------------------------|
B|---------------------------------------|
G|-----5--2--7--5------------------------|
D|--2--5--2--7--5------------------------|
A|--2--3--0--5--3------------------------|
E|--0------------------------------------|

CHORUS x2






END NOTE
e|----|
B|----|
G|----|
D|--2-|
A|--2-|
E|--0-|

----------------------------------------------------------------------------
			         Smoke
----------------------------------------------------------------------------



INTRO (i) + (ii)
         (i)              (ii)      (i)
e|-12-10-7-8-7-5-7-3-|7h8h8h8h8h8|-0---------------|
B|-------------------|-----------|-----------------|
G|-------------------|-----------|-----------------|
D|-------------------|-----------|-----------------|
A|-------------------|-----------|-----------------|
E|-------------------|-----------|-----------------|

VERSE
e|-------------------------------------------------|
B|-------------------------------------------------|
G|--------7--------2------------2------------------|
D|---2---7-7--5---2-2--2---5---2-2--5--------------|
A|--2-2-5----5-5-0----2-2-5-5-0----5-5-------------|
E|-0--------3--------0---3--------3----------------|

PRE CHORUS
e|-------------------------------------------------|
B|-------------------------------------------------|
G|----5-----7--------------------------------------|
D|-2--5--5--7--------------------------------------|
A|-2--3--5--5--------------------------------------|
E|-0-----3-----------------------------------------|

CHORUS
e|------------------------------------------------|
B|------------------------------------------------|
G|----5-----7-------------------------------------|
D|-2--5--5--7-------------------------------------|
A|-2--3--5--5-------------------------------------|
E|-0-----3----------------------------------------|

INTRO (i) + (iii)
INTRO (i) + (ii)

VERSE

PRE CHORUS

CHORUS

INTRO (i) + (iii)
INTRO (i) + (ii)

VERSE

INTRO (i) + (iii)

PRE CHORUS

CHORUS

INTRO (i) + ( iii)

For corrections email me at e_mericana@hotmail.com
comments
print report bad tab
11 comments total. Showing first comments.
0 reply
GirlsPLAYitBetR wrote on June 2 2005, 12:00 am

I think you're the "lazy ass" because you didn't even tab a damn thing.

0 reply
afirocker00 wrote on June 3 2005, 12:00 am

^Shut up, ***. I don't see you compiling it all together. With your stupid ass StIcKY CapS NaME.

0 reply
GirlsPLAYitBetR wrote on June 5 2005, 12:00 am

Oh no, I'm so offended. You're supposively "insulting" my screen name because you don't have anything else to use. why? because you don't know me, so why don't you shut up. what a lame insult. and by compliling...you mean copying and pasting? Thank you and goodbye.

I want to post or [tab]
guest
You may want to rate the tab now too:
select rating
Please do not post tabs as comments. Select "correction" instead!