Oops, an error
Loading. Please wait.

Cringe Bass Tab

version 4
version 4

Whole song

Interactive

4,394 views 6 this week
1 commentread comment
1 2 3 4 5
excellent!
x 9
add to favorites
launch autoscroll
font size
0
reset
guitar tuner
Autoscroll
slow
fast
+/-
esc
set tempo
stop
Help us to improve Ultimate-Guitar.com Take our survey!
×
Author
Difficulty
intermediate
My last one had sooooo many mistakes I figure I may as well tab again.

Intro (guitar only for first bit)
G|5~------|~-------|---------|--------|
D|--------|--------|---------|--------|
A|--------|--------|3R-------|--------|
E|--------|--------|---------|--------|

Verse
|--------|--------|--------|--------|
|--------|--------|--------|--------|
|3-333333|3-333333|3-333333|7-778-88|
|--------|--------|--------|--------|

|--------|--------|--------|--------|
|--------|--------|--------|--------|
|3-333333|3-333333|3-333333|--------|
|--------|--------|--------|0-001-11|

Chorus
"Your stand-by flight has just arrived..."
|----9999----9R--|------------------------|
|7777----7777----|777799101012121010991010|
|----------------|------------------------|
|----------------|------------------------|

Pre-verse
|--------|---------|--------|---------|
|--------|---------|--------|---------|
|3-333333|7-7-8-888|3-333333|---------|
|--------|---------|--------|0-0-1-111|

Verse
|--------|--------|--------|--------|
|--------|--------|--------|--------|
|3-333333|3-333333|3-333333|7-778-88|
|--------|--------|--------|--------|

|--------|--------|--------|--------|
|--------|--------|--------|--------|
|3-333333|3-333333|3-333333|--------|
|--------|--------|--------|0-001-11|

Chorus
"While you're counting sheep..."
|----9999----9R--|------------------------|----------------|--------|
|7777----7777----|777799101012121010991010|----------------|--------|
|----------------|------------------------|----------------|--------|
|----------------|------------------------|1-1-1-1-1-1-1-1-|3R------|

Instumental Part 1
|----------------|----------------|----------------|----------------|
|----------------|----------------|----------------|----------------|
|0000000000000000|----------------|----------------|----------------|
|----------------|0000000000000000|1111111111111111|3333333333333333|

|-----------------|-----------------|----------------|----------------|
|--------7-9-10-12|-----------------|--332233--332233|--553322--------|
|00000000---------|-----------------|----------------|--------55332200|
|-----------------|00000000000000000|11------11------|33--------------|
  ^that fill is exclusive to live version
   but i included it anyway.

Pre-verse
|--------|---------|--------|---------|
|--------|---------|--------|---------|
|3-333333|7-7-8-888|3-333333|---------| X2
|--------|---------|--------|0-0-1-111|

Verse
|--------|--------|--------|--------|
|--------|--------|--------|--------|
|3-333333|3-333333|3-333333|7-778-88|
|--------|--------|--------|--------|

|--------|--------|--------|--------|
|--------|--------|--------|--------|
|3-333333|3-333333|3-333333|--------|
|--------|--------|--------|0-001-11|

Chorus
"HEAD WIND!"
|----9999----9R--|------------------------|
|7777----7777----|777799101012121010991010|
|----------------|------------------------|
|----------------|------------------------|

Break
|----5------------|----5-----------|----5------------|----5-----------|
|------------5h75-|----------------|------------5h75-|----------------|
|3333--333333-----|3333--3377778888|3333--333333-----|3333--33--------|
|-----------------|----------------|-----------------|--------00001111|

Chorus again
|----9999----9R--|------------------------|
|7777----7777----|777799101012121010991010|
|----------------|------------------------|
|----------------|------------------------|

Pre-interlude
|---------------|-----------------|
|---------------|-----------------|
|---------------|-----------------|
|1-1-1-1-1-1-1-1|3-3-3-3-5-55-7-77|

Instrumental Part 2
Now the Dan whizzes about on the A|0 bits so some of the fills are just random. 
just mess around and don't worry about the fills on the A|0 bit.
|----------------|----------------|----------------|----------------|
|----------------|----779910109977|--553322--------|--332233--332200|
|3333333333333333|0000------------|--------55553333|----------------|
|----------------|----------------|33--------------|11------11------|

|----------------|----------------|----------------|----------------|
|----------------|--------10109977|----------------|----------------|
|3333333333333333|00000000--------|----------------|----------------|
|----------------|----------------|3333333333333333|1111111100000000|

|----------------|----------------|----------------|----------------|
|----------------|----------------|----------------|----------------|
|3333333333333333|3333333333332222|3333333333333333|3333333333333333|
|----------------|----------------|----------------|----------------|

|----------------|----------------|------------10101010-----|--------------|
|----------------|----------------|----10101010--------10R--|--------------|
|3333333333333R--|333333333333R---|8888---------------------|00000000000000|
|----------------|----------------|-------------------------|--------------|

|----9999----9R--|------------------------|
|7777----7777----|777799101012121010991010|
|----------------|------------------------|
|----------------|------------------------|

"You were the last good thing I ever saw..."
|----------------|--------|----------|
|----------------|--------|----------|
|----------------|--------|3~--------|
|1-1-1-1-1-1-1-1-|3R------|----------|

NOW RATE THIS 5 STARS FFS!
Suggest correction
comments
print report bad tab
1 comment total.
0 reply
TopherAbe 52 wrote on October 5 2007, 01:24 pm

Your last one was very good, man, but you out did yourself with actually going through and remaking it. Five stars.

guest
You may want to rate the tab now too:
select rating
Please do not post tabs as comments. Select "correction" instead!