Oops, an error
Loading. Please wait.

Dead On The Floor Tab

version 1
version 1

Whole song

Interactive

9,590 views 18 this week
no commentswrite comment
1 2 3 4 5
accurate
x 3
add to favorites
launch autoscroll
font size
0
reset
how to read this tab
guitar tuner
Tab Pro tools
  • play this tab
  • loop segment
  • change instrument
  • show fretboard
  • metronome
×
Best way to learn
"Dead On The Floor"
Autoscroll
slow
fast
+/-
esc
set tempo
stop
Difficulty
novice
-----------------------------------------------------------------------------
DEAD ON THE FLOOR - Alkaline Trio
-----------------------------------------------------------------------------
Tabbed by: Jacob M.             
Email: protojake AT aol DOT COM 
>>>Amazing new song from Alkaline Trio on This Addiction. These guys rock!<
>> This is my first tab. :)<<
Tuning: Standard

SONG ORDER
Intro pt. 1
Intro pt. 2
Verse x2
Chorus 1
Intro pt. 2
Verse x2
Chorus 2
Bridge x2
Chorus 2
Intro pt.2
Verse x2
Chorus 2
Bridge x2
Chorus 2
Outro pt.1 x2
Outro pt.2 x2 

LISTEN FOR TIMING
INTRO GUITAR ONLY (PALM MUTE THIS PART ONLY)
e|---------------------------------------------------------------------------|
B|---------------------------------------------------------------------------|
G|---------------------------------------------------------------------------|
D|----6---4---6---2---4---1---2---2---6---4---6---2---4---7~~----------------|
A|----------------------------------0---0---0---0---0---0--------------------|
E|--0---0---0---0---0---0---0---0--------------------------------------------|

BAND COMES IN HERE
e|---------------------------------------------------------------------------|
B|---------------------------------------------------------------------------|
G|---------------------------------------------------------------------------|
D|----6---4---6---2---4---1---2---2----6---4---6---2---4---7---6p4h6---------|
A|-----------------------------------0---0---0---0---0---0---0---------------|
E|--0---0---0---0---0---0---0---0--------------------------------------------|

VERSE
e|---------------------------------------------------------------------------|
B|---------------------------------------------------------------------------|
G|-------2~~--4~~------------------------------------------------------------|
D|--2~~--2~~--4~~------------------------------------------------------------|
A|--2~~--0~~--2~~------------------------------------------------------------|
E|--0~~----------------------------------------------------------------------|

CHORUS 1
e|---------------------------------------------------------------------------|
B|---------------------------------------------------------------------------|
G|--6---2-------4-----4--2--4------------------------------------------------|
D|--6---2---2---4--2--4--2--4------------------------------------------------|
A|--4---0---2---2--2--2--0--2------------------------------------------------|
E|----------0------0---------------------------------------------------------|

CHORUS 2 ENDING
e|---------------------------------------------------------------------------|
B|---------------------------------------------------------------------------|
G|--------------4------------------------------------------------------------|
D|--2--4--6--7--4------------------------------------------------------------|
A|--0--0--0--0--2------------------------------------------------------------|
E|---------------------------------------------------------------------------|

BRIDGE (essentially the same as the verse, but your E is an octave higher)
e|---------------------------------------------------------------------------|
B|---------------------------------------------------------------------------|
G|--9--2--4--2---------------------------------------------------------------|
D|--9--2--4--2---------------------------------------------------------------|
A|--7--0--2--0---------------------------------------------------------------|
E|---------------------------------------------------------------------------|

OUTRO PT. 1(pretty darn close to exactly like the intro)
e|---------------------------------------------------------------------------|
B|---------------------------------------------------------------------------|
G|---------------------------------------------------------------------------|
D|----6---4---6---2---4---1---2---2---6---4---6---6---6---4---6---6----------|
A|----------------------------------0---0---0---0---0---0---0---0------------|
E|--0---0---0---0---0---0---0---0--------------------------------------------|

OUTRO PT.2
e|---------------------------------------------------------------------------|
B|---------------------------------------------------------------------------|
G|------------------------------------2---4----------------------------------|
D|----6---4---6---2---4---1---2---2---2---4----------2~~---------------------|
A|------------------------------------0---2----------2~~---------------------|
E|--0---0---0---0---0---0---0---0--------------------0~~---------------------|


Any comments that AREN'T RUDE, feel free to email me.
comments
We did not receive enough feedback on this tab! Please rate:
print report bad tab
1 2 3 4 5
I want to post or [tab]
guest
You may want to rate the tab now too:
select rating
Please do not post tabs as comments. Select "correction" instead!