Oops, an error
Loading. Please wait.

Death Bed Tab

version 1
version 1

Whole song

4,965 views 1 this week
3 commentsread comments
1 2 3 4 5
x 6
add to favorites
launch autoscroll
font size
0
reset
how to read this tab
guitar tuner
Autoscroll
slow
fast
+/-
esc
set tempo
stop
Help us to improve Ultimate-Guitar.com Take our survey!
×
Author
ALKALINE TRIO
DEATH BED
CRIMSON

This is off their new album due may 24th, this song is so good, i can't take
credit for this tab though, my friend James did all the work.

INTRO
e-----------------------------------------|
b-----------------------------------------|
g-10-10-------------10-11-11-11-11--------|
d---------11-11-88-----11-11-11-11--------|
a-----------------------------------------|
e-----------------------------------------|


verse #1 -

e-----------------------------------------------------------------|
b-----------------------------------------------------------------|
g----1111-66-88-----1111-66--------1111-66-88---------------------|
d-88-1111-66-88--88-1111-66-66--88-1111-66-88--10101011111110-----|
a-88-9-9--44-66--88-9-9--44-66--88-9-9--44-66--8-8-8-8-8-8-8------|
e-66-------------66---------44--66--------------------------------|

chorus -
  (i)                                 (ii)
e---------------------------------|----------------------------------------|
b---------------------------------|----------------------------------------|
g-11111111111111---------66666666-|-1111111111111111-6666666---------------|
d-11111110101111-8888888-66666666-|-1111111010111111-6666666-66666666------|
a-9-9-9-9-9-9-9--8888888-44444444-|-9-9-9-9-9-9-9-9--4444444-66666666------|
e----------------6666666----------|--------------------------44444444------|

repeat (i)
then end of chorus is -

e---------------------------------------------------|
b---------------------------------------------------|
g-1111111111111111----------------------------------|
d-1111111010111111-33333333-44444444-66666666-------|
a-9-9-9-9-9-9-9-9--33333333-44444444-66666666-------|
e------------------11111111-22222222-44444444-------|

breakdown -

e---------------------------------------------|----------------------------------|
b---------------------------------------------|----------------------------------|
g-666-8-6-5-6-666-8-6-5-6-6666666-8888888-----|-8888888--------------------------|
d---------------------------------------------|-8888888-4444444-6666666----------|
a---------------------------------------------|-6666666-4444444-6666666----------|
e---------------------------------------------|-6666666-2222222-4444444----------|

CHORUS

for any corrections email me at e_mericana@hotmail.com
Suggest correction
comments
print report bad tab
3 comments total.
0 reply
Greenfinger182 999 May 27, 2005 12:00 AM

Very nice tab. I've been wondering about this one for a while. Good job.

0 reply
Letterbomb11 10 Jul 13, 2005 12:00 AM

Uh...the name of the song is Dethbed, not Death Bed

0 reply
NoFxMIke 502 Sep 13, 2007 09:42 AM

here's another way to play the opening lead...Its easier for me to think in terms of chords.

e|----------------------------------|
b|----6---------------7-7-7-7-7-7-7-|
g|------6--------6----6-6-6-6-6-6-6-|
D|----------8---------4-4-4-4-4-4-4-|

guest
You may want to rate the tab now too:
select rating
Wanna post a correction for this tab? Suggest correction