Oops, an error
Loading. Please wait.

Dethbed Bass Tab

version 1
version 1

Whole song

Interactive

1,379 views 1 this week
no commentswrite comment
1 2 3 4 5
2 more votes to show rating
add to favorites
launch autoscroll
font size
0
reset
guitar tuner
Autoscroll
slow
fast
+/-
esc
set tempo
stop
Help us to improve Ultimate-Guitar.com Take our survey!
×
Author
Standard Tuning

Intro
G-------------------------------------|
D-------------------------------------|
A----------99999999-------------------|
E-66669999----------66661111-22222444-|

G-------------------------------------|
D-------------------------------------|
A----------99999999-------------------|
E-66669999----------11122211-11111444-|

Verse
G--------------------------------------------------------|
D--------------------------------------------------------|
A----------44----666---------44----------------44----666-|
E-66----222---------66----222------44466----222----------|

G--------------------|
D--------------------| <-(the bass comes in on the first verse at this part)
A--------------------|
E-11122211-11111444--|

Chorus
G-------------------------------------|
D-------------------------------------|
A-------------------11111111-44444444-|
E-22222222-22222222-------------------|

G-------------------------------------|
D----------44444444-------------------|
A-------------------44664433---664433-|
E-22222222-------------------44-------|

G-------------------------------------|
D-------------------------------------|
A-------------------11111111-44444444-|
E-22222222-22222222-------------------|

G-------------------------------------|
D-------------------------------------|
A-------------------------------------|
E-22222222-22222222-11111111-22224444-|

Intro

Verse

Bridge
G------------------------------------|
D------------------------------------| x2
A----9868-----6434--------------6434-|
E-666------666------2222222--444-----|

G----------------------------------------|
D----------------------------------------|
A-66669868~--666~--434--------------6434-|
E----------------------22222222-4444-----|

G---------------------------------|
D---------------------------------|
A-66669868~--666~--434------------|
E----------------------22222222-4-|

Chorus
Suggest correction
Give kudos to tab author, rate the tab!
1 2 3 4 5
comments
print report bad tab
guest
You may want to rate the tab now too:
select rating
Wanna post a correction for this tab? Suggest correction