Oops, an error
Loading. Please wait.

Do You Wanna Know Bass Tab

version 2
version 2

Whole song

Interactive

808 views 1 this week
3 commentsread comments
1 2 3 4 5
2 more votes to show rating
add to favorites
launch autoscroll
font size
0
reset
guitar tuner
Autoscroll
slow
fast
+/-
esc
set tempo
stop
Help us to improve Ultimate-Guitar.com Take our survey!
×
Author
Difficulty
novice
Do You Wanna Know?
Alkaline Trio
Bass Tab

Intro

G|-----------------|-----------------|-----------------|-----------------|
D|-----------------|-----------------|-----------------|-----------------|
A|-5-5-5-5-5-5-5-5-|-4-4-4-4-4-5-4-0-|-----------------|-----------------|
E|-----------------|-----------------|-2-2-2-2-2-2-2-2-|-0-0-0-0-0-0-0-0-|
   


G|-----------------|-----------------|-----------------|-----------------|
D|-----------------|-----------------|-----------------|-----------------|
A|-5-5-5-5-5-5-5-5-|-4-4-4-4-4-5-4-0-|-----------------|-----------------|
E|-----------------|-----------------|-2-2-2-2-2-2-2-2-|-0-0-0-0-0-0-0-0-|
   


G|-----------------|-----------------|
D|-----------------|-----------------|
A|-0~--------------|-----------------|
E|-----------------|-----------------|
     


Verse - So hello where are we today
                Still fighting, still running in place
                And now the outline of this lake
                Seems to be pointing me away
                Honestly, I’ve never lied more
                To myself all over the floor
                Right through my teeth I’ve showed you
                Just how weak my knees can get

G|-----------------|-----------------|-----------------|-----------------|
D|-----------------|-----------------|-2-2-2-2-2-2-2-2-|-2-2-2-2-2-2-2-2-|
A|-0-0-0-0-0-0-0-0-|-0-0-0-0-0-0-0-0-|-----------------|-----------------|
E|-----------------|-----------------|-----------------|-----------------|
     


G|-----------------|-----------------|-----------------|-----------------|
D|-4-4-4-4-4-4-4-4-|-4-4-4-4-4-4-4-4-|-0-0-0-0-0-0-0-0-|-0-0-0-0-0-0-0-0-|
A|-----------------|-----------------|-----------------|-----------------|
E|-----------------|-----------------|-----------------|-----------------|



G|-----------------|-----------------|-----------------|-----------------|
D|-----------------|-----------------|-----------------|-----------------|
A|-0-0-0-0-0-0-0-0-|-0-0-0-0-0-0-0-0-|-----------------|-----------------|
E|-----------------|-----------------|-4-4-4-4-4-4-4-4-|-4-4-4-4-4-4-4-4-|



G|-----------------|-----------------|-----------------|-----------------|
D|-----------------|-----------------|-----------------|-----------------|
A|-----------------|-----------------|-5-5-5-5-5-5-5-5-|-5-5-5-5-5-5-5/--|
E|-2-2-2-2-2-2-2-2-|-2-2-2-2-2-2-2-2-|-----------------|-----------------|



Pre-Chorus - Don’t let go… my spine is slipping like a fault line
                If I go, I’ll bury us all
                Don’t close my door… don’t leave me out with these mosquitoes
                Trying to drink up all my wine



G|-----------------|-----------------|-----------------|-----------------|
D|-----------------|-----------------|-----------------|-----------------|
A|-12--------------|-11--------------|-9---------------|-7---------------|
E|-----------------|-----------------|-----------------|-----------------|



G|-----------------|-----------------|-----------------|-----------------|
D|-----------------|-----------------|-----------------|-----------------|
A|-5-5-5-5-5-5-5-5-|-5-5-5-5-5-5-5-5-|-----------------|-7-7-7-7-7-7-7-7/|
E|-----------------|-----------------|-0-0-0-0-0-0-0-0-|-----------------|
   1 + 2 + 3 + 4 +   1 + 2 + 3 + 4 +   1 + 2 + 3 + 4 +   1 + 2 + 3 + 4 +  


G|-----------------|-----------------|-----------------|-----------------|
D|-----------------|-----------------|-----------------|-----------------|
A|-12--------------|-11--------------|-9---------------|-7---------------|
E|-----------------|-----------------|-----------------|-----------------|



G|-----------------|-----------------|-----------------|-----------------|
D|-----------------|-----------------|-----------------|-----------------|
A|-5-5-5-5-5-5-5-5-|-5-5-5-5-5-5-5-5-|-----------------|-----------------|
E|-----------------|-----------------|-0-0-0-0-0-0-0-0-|-0-0-0-0-X-X-X-X-|



Chorus -        Do you wanna know what my love is?
                Do you wanna hear how my song goes?
                Do you wanna know what my love is?
                Don’t say no
                Don’t say no

G|-----------------|-----------------|-----------------|-----------------|
D|-----------------|-----------------|-----------------|-----------------|
A|-5-5-5-5-5-5-5-5-|-----------------|-----------------|---------4-4-4-4-|
D|-----------------|-2-2-2-2-2-2-2-2-|-0-0-0-0-0-0-0-0-|-0-0-0-0---------|



G|-----------------|-----------------|-----------------|-----------------|
D|-----------------|-----------------|-----------------|---------6-------|
A|-5-5-5-5-5-5-5-5-|-----------------|-----------------|-X-9---X---4-----|
E|-----------------|-2-2-2-2-2-2-2-2-|-0-0-0-0-0-0-0-0-|-----------------|



G|-----------------|-----------------|-----------------|-----------------|
D|-----------------|-----------------|-----------------|-----------------|
A|-5-5-5-5-5-5-5-5-|-----------------|-----------------|-4---------------|
E|-----------------|-2-2-2-2-2-2-2-2-|-0-0-0-0-0-0-0-0-|---------4-------|



G|-----------------|-----------------|-----------------|-----------------|
D|-----------------|-----------------|-----------------|-----------------|
A|-----------------|---------4-------|-5-5-5-5-5-5-5-5-|-5-5-5-5-5-------|
E|-2-------4-------|-5---------------|-----------------|-----------------|



Verse - So now it’s up to me to wait
                I need you to reciprocate
                My heart is ticking like a box
                Sent to me by anonymous
                And now I’m scared to open it
                I’m always blowing up to bits
                I’m always running out of lives
                Running out of time


G|-----------------|-----------------|-----------------|-----------------|
D|-----------------|-----------------|-----------------|-----------------|
A|-0---------------|-----------------|-----------------|-----------------|
E|-----------------|-----------------|-0---------------|-----------------|



G|-----------------|-----------------|-----------------|-----------------|
D|-----------------|-----------------|-----------------|-----------------|
A|-9-9-9-9-9-9-9-9-|-9-9-9-9-9-9-9-9-|-5-5-5-5-5-5-5-5-|-5-5-5-5-5-5-5-5-|
E|-----------------|-----------------|-----------------|-----------------|



G|-----------------|-----------------|-----------------|-----------------|
D|-----------------|-----------------|-----------------|-----------------|
A|-----------------|-----------------|-----------------|-----------------|
E|-5-5-5-5-5-5-5-5-|-5-5-5-5-5-5-5-5-|-4-4-4-4-4-4-4-4-|-4-4-4-4-4-4-4-4-|



G|-----------------|-----------------|-----------------|-----------------|
D|-----------------|-----------------|-----------------|-----------------|
A|-----------------|-----------------|-5-5-5-5-5-5-5-5-|-5-5-5-5-5-5-5/--|
E|-2-2-2-2-2-2-2-2-|-2-2-2-2-2-2-2-2-|-----------------|-----------------|



Pre-Chorus - Don’t let go… my spine is slipping like a fault line
                If I go, I’ll bury us all
                Don’t close my door… don’t leave me out with these mosquitoes
                Trying to drink up all my wine

G|-----------------|-----------------|-----------------|-----------------|
D|-----------------|-----------------|-----------------|-----------------|
A|-12--------------|-11--------------|-9---------------|-7---------------|
E|-----------------|-----------------|-----------------|-----------------|



G|-----------------|-----------------|-----------------|-----------------|
D|-----------------|-----------------|-----------------|-----------------|
A|-5-5-5-5-5-5-5-5-|-5-5-5-5-5-5-5-5-|-----------------|-7-7-7-7-7-7-7-7/|
E|-----------------|-----------------|-0-0-0-0-0-0-0-0-|-----------------|



G|-----------------|-----------------|-----------------|-----------------|
D|-----------------|-----------------|-----------------|-----------------|
A|-12--------------|-11--------------|-9---------------|-7---------------|
E|-----------------|-----------------|-----------------|-----------------|



G|-----------------|-----------------|-----------------|-----------------|
D|-----------------|-----------------|-----------------|-----------------|
A|-5-5-5-5-5-5-5-5-|-5-5-5-5-5-5-5-5-|-----------------|-----------------|
E|-----------------|-----------------|-0-0-0-0-0-0-0-0-|-0-0-0-0-X-X-X-X-|



Chorus -        Do you wanna know what my love is?
                Do you wanna hear how my song goes?
                Do you wanna know what my love is?
                Don’t say no
                Don’t say no

G|-----------------|-----------------|-----------------|-----------------|
D|-----------------|-----------------|-----------------|-----------------|
A|-5-5-5-5-5-5-5-5-|-----------------|-----------------|---------4-4-4-4-|
E|-----------------|-2-2-2-2-2-2-2-2-|-0-0-0-0-0-0-0-0-|-0-0-0-0---------|



G|-----------------|-----------------|-----------------|-----------------|
D|-----------------|-----------------|-----------------|---------6-------|
A|-5-5-5-5-5-5-5-5-|-----------------|-----------------|-X-9---X---4-----|
E|-----------------|-2-2-2-2-2-2-2-2-|-0-0-0-0-0-0-0-0-|-----------------|



G|-----------------|-----------------|-----------------|-----------------|
D|-----------------|-----------------|-----------------|-----------------|
A|-5-5-5-5-5-5-5-5-|-----------------|-----------------|-4---------------|
E|-----------------|-2-2-2-2-2-2-2-2-|-0-0-0-0-0-0-0-0-|---------4-------|



G|-----------------|-----------------|-----------------|-----------------|
D|-----------------|-----------------|-----------------|-----------------|
A|-----------------|---------4-------|-5-5-5-5-5-5-5-5-|-5-5-5-5-5-------|
E|-2-------4-------|-5---------------|-----------------|-----------------|



Bridge -        Don’t let me go, I’d fall apart
                Don’t say you won’t follow my heart
                I’ve kept this deep inside for far too long… it can’t be wrong
                Only one life to give, I cross my heart and hope to live
                With you my darling here for evermore


G|-----------------|-----------------|-----------------|-----------------|
D|-----------------|-----------------|-----------------|-----------------|
A|-4-4-4-4-4-4-4-4-|-4-4-4-4-4-4-4-4-|-0-0-0-0-0-0-0-0-|-0-0-0-0-0-0-0-0-|
E|-----------------|-----------------|-----------------|-----------------|



G|-----------------|-----------------|-----------------|-----------------|
D|-----------------|-----------------|-----------------|-----------------|
A|-5-5-5-5-5-5-5-5-|-5-5-5-5-5-5-5-5-|-4-4-4-4-4-4-4-4-|-----------------|
E|-----------------|-----------------|-----------------|-5---5---4---4---|



G|-----------------|-----------------|-----------------|-----------------|
D|-----------------|-----------------|-----------------|-----------------|
A|-----------------|-----------------|-4-4-4-4-4-4-4-4-|-4-4-4-4-4-4-4-4-|
E|-2-2-2-2-2-2-2-2-|-2-2-2-2-2-2-2-2-|-----------------|-----------------|



G|-----------------|-----------------|-----------------|-----------------|
D|-----------------|-----------------|-----------------|-----------------|
A|-5-5-5-5-5-5-5-5-|-5-5-5-5-5-5-5-5-|-----------------|-----------------|
E|-----------------|-----------------|-0-0-0-0-0-0-0-0-|-0-0-0-0-X-X-X-X-|



Chorus -        Do you wanna know what my love is?
                Do you wanna hear how my song goes?
                Do you wanna know what my love is?
                Don’t say no
                Don’t say no
                Do you wanna know what my love is?
                Do you wanna hear how my song goes?
                Do you wanna know what my love is?
                Don’t say no
                Don’t say no

G|-----------------|-----------------|-----------------|-----------------|
D|-----------------|-----------------|-----------------|-----------------|
A|-5-5-5-5-5-5-5-5-|-----------------|-----------------|---------4-4-4-4-|
E|-----------------|-2-2-2-2-2-2-2-2-|-0-0-0-0-0-0-0-0-|-0-0-0-0---------|



G|-----------------|-----------------|-----------------|-----------------|
D|-----------------|-----------------|-----------------|---------6-------|
A|-5-5-5-5-5-5-5-5-|-----------------|-----------------|-X-9---X---4-----|
E|-----------------|-2-2-2-2-2-2-2-2-|-0-0-0-0-0-0-0-0-|-----------------|



G|-----------------|-----------------|-----------------|-----------------|
D|-----------------|-----------------|-----------------|-----------------|
A|-5-5-5-5-5-5-5-5-|-----------------|-----------------|-4---------------|
E|-----------------|-2-2-2-2-2-2-2-2-|-0-0-0-0-0-0-0-0-|---------4-------|



G|-----------------|-----------------|-----------------|-----------------|
D|-----------------|-----------------|-----------------|-----------------|
A|-----------------|---------4-------|-5-5-5-5-5-5-5-5-|-5-5-5-5-5-------|
E|-2-------4-------|-5---------------|-----------------|-----------------|



G|-----------------|-----------------|-----------------|-----------------|
D|-----------------|-----------------|-----------------|-----------------|
A|-----------------|---------4-------|-5-5-5-5-5-5-5-5-|-5-5-5-5-5-------|
E|-2-------4-------|-5---------------|-----------------|-----------------|




G|-----------------|-----------------|-----------------|-----------------|
D|-----------------|-----------------|-----------------|-----------------|
A|-5-5-5-5-5-5-5-5-|-----------------|-----------------|---------4-4-4-4-|
E|-----------------|-2-2-2-2-2-2-2-2-|-0-0-0-0-0-0-0-0-|-0-0-0-0---------|



G|-----------------|-----------------|-----------------|-----------------|
D|-----------------|-----------------|-----------------|---------6-------|
A|-5-5-5-5-5-5-5-5-|-----------------|-----------------|-X-9---X---4-----|
E|-----------------|-2-2-2-2-2-2-2-2-|-0-0-0-0-0-0-0-0-|-----------------|



G|-----------------|-----------------|-----------------|-----------------|
D|-----------------|-----------------|-----------------|-----------------|
A|-5-5-5-5-5-5-5-5-|-----------------|-----------------|-4---------------|
E|-----------------|-2-2-2-2-2-2-2-2-|-0-0-0-0-0-0-0-0-|---------4-------|



G|-----------------|-----------------|-----------------|-----------------|
D|-----------------|-----------------|-----------------|-----------------|
A|-----------------|---------4-------|-5~--------------|-----------------|
E|-2-------4-------|-5---------------|-----------------|-----------------|
Suggest correction
Give kudos to tab author, rate the tab!
1 2 3 4 5
comments
print report bad tab
3 comments total.
0 reply
chromaticvision 4,024 Dec 05, 2008 04:07 PM

you ass you stole my tab. and you're going to say "i made it into standard tuning" which you did, but left the tuning in drop d. and who the **** is too lazy to tune down??? and you got rid of stuff so you ****ing defiled my tab. *******.

0 reply
aTaRi 3o3 73 Dec 05, 2008 04:27 PM, edited on March 23 2015, 05:55 pm

.

0 reply
aTaRi 3o3 73 Dec 05, 2008 04:29 PM, edited on March 23 2015, 05:54 pm

.

guest
You may want to rate the tab now too:
select rating
Wanna post a correction for this tab? Suggest correction