Oops, an error
Loading. Please wait.

Dont Say You Wont Bass Tab

version 1
version 1

Whole song

Interactive

317 views 1 this week
no commentswrite comment
1 2 3 4 5
please rate
add to favorites
launch autoscroll
font size
0
reset
guitar tuner
Autoscroll
slow
fast
+/-
esc
set tempo
stop
Help us to improve Ultimate-Guitar.com Take our survey!
×
Author
Difficulty
novice
Hey guys, I'm not a bass player, but I think I've got most of this right, check it out, 
with it, etc! Alkaline Trio rocks, rock on!

         Intro x2
-------|--------------------------------------------------------------|
-SLIDE-|--------------------------------------------------------------|
-------|----------------------------------5-5-5-4-4-4-4-2-2-2-0-0-0-0-|
----9/-|-5-5-5-5-5-5-5-5-5-5-5-5-5-5-5-5------------------------------|

Verse x2

---------------------------------------------------------------------|
---------------------------------------------------------------------|
-------------------------------------5-5-5-5-5-5-5-5-5-5-5-5-5-5-5-5-|
-----5-5-5-5-5-5-5-5-5-5-5-5-5-5-5-5---------------------------------|


Pre-Chorus x1

--------------------------------------------------------------------|
--------------------------------------------------------------------|
---------------------------------5-5-5-5-5-5-5-5-5-5-5-5-5-5-5-5----|
-2-2-2-2-2-2-2-2-2-2-2-2-2-2-2-2------------------------------------|

Chorus x 1


-----------------------------------------------------------------|
-----------------------------------------------------------------|
---------------------------------5-5-5-5-5-5-5-5-5-5-5-5-5-5-5-5-|
-5-5-5-5-5-5-5-5-3-3-3-3-3-3-3-3---------------------------------|

Bridge   x2

----------------------------------------|
----------------------------------------|
---------------------5-5-5--5-5-5-4-4-4-|
--2-2-2--2-2-2-5-5-5--------------------|


and those are all the pieces of the puzzle! just put them together!:D
Suggest correction
Give kudos to tab author, rate the tab!
1 2 3 4 5
comments
print report bad tab
guest
You may want to rate the tab now too:
select rating
Please do not post tabs as comments. Select "correction" instead!