Oops, an error
Loading. Please wait.

Dorothy Tab

40 views 1 this week
no commentswrite comment
1 2 3 4 5
3 more votes to show rating
add to favorites
launch autoscroll
font size
0
reset
how to read this tab
guitar tuner
Autoscroll
slow
fast
+/-
esc
set tempo
stop
Help us to improve Ultimate-Guitar.com Take our survey!
×
Author
Difficulty
novice
Alkaline Trio - Dorothy
Album - This Addiction
Not so hard song like it sounds
PS. My first tab

[INTRO] Guitar 1 ( Listen to the song for timing )
e|-----------------------|--------------------------|
B|--13------12-----15----|----13-------12-----------|
G|---x(x16)--x(x8)--x(x8)|x3---x(x16)---x(x16)------|
D|--10-------9-----12----|----10--------9-----------|
A|-----------------------|--------------------------|
E|-----------------------|--------------------------|

[VERSE]  Guitar 1
e|----------------------|----------|
B|------13------12------|--13--12--|
G|----12------12---(x4)-|---x---x--|
D|--10-------9----------|--10---9--|
A|----------------------|----------|
E|----------------------|----------|

[CHORUS]  Guitar 1 ( Very FAST part )
e|-------------------------------------|---------------------------------|----------------------------------|
B|--121212-13-1212-1515-12-13-12-13----|--121212-13-1212-13-1212-13-1212-|-121212-13-1212-1515-12-13-12-13--|
G|---x-x-x--x--x-x--x-x--x--x--x--x(x3)|---x-x-x--x--x-x--x--x-x--x--x-x-|--x-x-x--x--x-x--x-x--x--x--x--x--|
D|---9-9-9-10--9-9-1212--9-10--9-10----|---9-9-9-10--9-9-10--9-9-10--9-9-|--9-9-9-10--9-9-1212--9-10--9-10--|
A|-------------------------------------|---------------------------------|----------------------------------|
E|-------------------------------------|---------------------------------|----------------------------------|

e|----------------------------------|
B|--121212-13-1212-13-1212-13-1212--|
G|---x-x-x--x--x-x--x--x-x--x--x-x--|
D|---9-9-9-10--9-9-10--9-9-10--9-9--|
A|----------------------------------|
E|----------------------------------|

[CHORUS]  Guitar 2
e|------------------------------------------------------------------------|
B|------------------------------------------------------------------------|
G|----------55555555----------------------------55555555------------------|
D|-22222222-55555555-55555555-77777777-22222222-55555555-7777777777777777-|
A|-22222222-33333333-55555555-77777777-22222222-33333333-7777777777777777-|
E|-00000000----------33333333-55555555-00000000----------5555555555555555-|

[PRE VERSE] Guitar 1
e|------------------------------|
B|--13t--12t--15t-13t-12t--10t--|
G|---x----x----x---x---x----x---|
D|--10----9---12--10---9----7---|
A|------------------------------|
E|------------------------------|

[VERSE]  Guitar 1
e|----------------------|----------|
B|------13------12------|--13--12--|
G|----12------12---(x4)-|---x---x--|
D|--10-------9----------|--10---9--|
A|----------------------|----------|
E|----------------------|----------|

[CHORUS]  Guitar 1
e|-------------------------------------|---------------------------------|----------------------------------|
B|--121212-13-1212-1515-12-13-12-13----|--121212-13-1212-13-1212-13-1212-|-121212-13-1212-1515-12-13-12-13--|
G|---x-x-x--x--x-x--x-x--x--x--x--x(x3)|---x-x-x--x--x-x--x--x-x--x--x-x-|--x-x-x--x--x-x--x-x--x--x--x--x--|
D|---9-9-9-10--9-9-1212--9-10--9-10----|---9-9-9-10--9-9-10--9-9-10--9-9-|--9-9-9-10--9-9-1212--9-10--9-10--|
A|-------------------------------------|---------------------------------|----------------------------------|
E|-------------------------------------|---------------------------------|----------------------------------|

e|----------------------------------|
B|--121212-13-1212-13-1212-13-1212--|
G|---x-x-x--x--x-x--x--x-x--x--x-x--|
D|---9-9-9-10--9-9-10--9-9-10--9-9--|
A|----------------------------------|
E|----------------------------------|

[CHORUS]  Guitar 2
e|------------------------------------------------------------------------|
B|------------------------------------------------------------------------|
G|----------55555555----------------------------55555555------------------|
D|-22222222-55555555-55555555-77777777-22222222-55555555-7777777777777777-|
A|-22222222-33333333-55555555-77777777-22222222-33333333-7777777777777777-|
E|-00000000----------33333333-55555555-00000000----------5555555555555555-|

[BRIDGE]  Guitar 1
e|---------------------------------------|--------------|
B|---------------------------------------|--------------|
G|--7-----5----7--5---4---2---4----------|--4--2--7-----|
D|--x-----x----x--x---x---x---x---5------|--x--x--x--5--|
A|--5-----3----5--3---2---0---2---x------|--2--0--5--x--|
E|--------------------------------3------|-----------3--|

[BRIDGE]  Guitar 2(PM)
e|---------------------------------------------------------------------|
B|---------------------------------------------------------------------|
G|-55555555555555555555555555555555-4444444444444444-99999999-77777777-|
D|-55555555555555555555555555555555-4444444444444444-99999999-77777777-|(x2)
A|-33333333333333333333333333333333-2222222222222222-77777777-55555555-|
E|---------------------------------------------------------------------|

[CHORUS]  Guitar 1
e|-------------------------------------|---------------------------------|----------------------------------|
B|--121212-13-1212-1515-12-13-12-13----|--121212-13-1212-13-1212-13-1212-|-121212-13-1212-1515-12-13-12-13--|
G|---x-x-x--x--x-x--x-x--x--x--x--x(x3)|---x-x-x--x--x-x--x--x-x--x--x-x-|--x-x-x--x--x-x--x-x--x--x--x--x(x3)
D|---9-9-9-10--9-9-1212--9-10--9-10----|---9-9-9-10--9-9-10--9-9-10--9-9-|--9-9-9-10--9-9-1212--9-10--9-10--|
A|-------------------------------------|---------------------------------|----------------------------------|
E|-------------------------------------|---------------------------------|----------------------------------|

e|----------------------------------|
B|--121212-13-1212-13-1212-13-1212--|
G|---x-x-x--x--x-x--x--x-x--x--x-x--|
D|---9-9-9-10--9-9-10--9-9-10--9-9--| This x3
A|----------------------------------|
E|----------------------------------|

[CHORUS]  Guitar 2
e|------------------------------------------------------------------------|
B|------------------------------------------------------------------------|
G|----------55555555----------------------------55555555------------------|
D|-22222222-55555555-55555555-77777777-22222222-55555555-7777777777777777-|
A|-22222222-33333333-55555555-77777777-22222222-33333333-7777777777777777-|
E|-00000000----------33333333-55555555-00000000----------5555555555555555-|

[Ending note]
E|-------------|
B|-------------|
G|--5----------|
D|--5----------|
A|--3----------|
E|-------------|

Thats all, comments , corrections

************************************

| x   Dead note
| t   Tremolo
| PM  Palm mute

************************************
Suggest correction
Give kudos to tab author, rate the tab!
1 2 3 4 5
comments
print report bad tab
guest
You may want to rate the tab now too:
select rating
Wanna post a correction for this tab? Suggest correction