Oops, an error
Loading. Please wait.

Every Thug Needs A Lady Tab

version 1
version 1

Whole song

Interactive

25,634 views 15 this week
1 commentread comment
1 2 3 4 5
x 3
add to favorites
launch autoscroll
font size
0
reset
how to read this tab
guitar tuner
×
Best way to learn
"Every Thug Needs A Lady"
Autoscroll
slow
fast
+/-
esc
set tempo
stop
Author
'Every Thug Needs A Lady' - Alkaline Trio

Intro/Main Riff  2x
|-3333-x-3---0000-x-0---0000-x-0------------|
|-3333-x-3---3333-x-3---3333-x-3------------|
|-0000-x-0---2222-x-2---0000-x-0---55555555-|
|-0000-x-0---2222-x-2---2222-x-2---55555555-|
|-2222-x-2---0000-x-0---2222-x-2---33333333-|
|-3333-x-3--------------0000-x-0------------|


Verse (all palm muted)  2x                                     **  **  **
|-------------------------------------|-----------------------------------|
|-------------------------------------|-----------------------------------|
|----------22222222----------55555555-|----------77777777-555555555555555-|
|-55555555-22222222-22222222-55555555-|-55555555-77777777-555555555555555-|
|-55555555-00000000-22222222-33333333-|-55555555-55555555-333333333333333-|
|-33333333----------00000000----------|-33333333--------------------------|


Prechorus 
|-------------------------|    |--------------------0-------------|
|-------------------------|    |--------------------0-------------|
|-77777---------55555555--| 2x |-77777777-5555-4444-0---5555-7777-|
|-77777-*pause*-55555555--|    |-77777777-5555-4444-2---5555-7777-|
|-55555---------33333333--|    |-55555555-3333-2222-2---3333-5555-|
|-------------------------|    |--------------------0-------------|

 
Chorus  2x
|-----------------------------------------------|
|-----------------------------------------------|
|------5555------------5555-----------5555-7777-|
|-5555-5555-22222222---5555-5555-7777-5555-7777-|
|-5555-3333-22222222---3333-5555-7777-3333-5555-|
|-3333------00000000--------3333-5555-----------|


~Intro/Main Riff  2x


~Verse (palm muted, accent where marked '*')  2x


~Prechorus


~Chorus  2x


~Main Riff  2x


Outro
|--------------------|    |---------------------|
|--------------------|    |---------------------|
|------7777-55555555-| 2x |------7777-5555-7777-| 2x
|-5555-7777-55555555-|    |-5555-7777-5555-7777-|
|-5555-5555-33333333-|    |-5555-5555-3333-5555-|
|-3333---------------|    |-3333----------------|

End
|---|
|---|
|---|
|-5-|
|-5-|
|-3-|
Suggest correction
Give kudos to tab author, rate the tab!
1 2 3 4 5
comments
print report bad tab
1 comment total.
0 reply
4yourlungsonly 10 Jan 13, 2006 06:27 AM

Before the outro it goes like this
|-0000-------0000------0000---------------|
|-3333-0000--3333-0000-3333-0000----------|
|-0000-0000--2222-2222-0000-0000-55555555-|
|-0000-0000--2222-2222-2222-2222-55555555-|
|-2222-2222--0000-0000-2222-2222-33333333-|
|-3333-3333------------0000-0000----------|

guest
You may want to rate the tab now too:
select rating
Wanna post a correction for this tab? Suggest correction