Oops, an error
Loading. Please wait.

From Here To Infirmiry Tab

2,321 views 1 this week
5 commentsread comments
1 2 3 4 5
x 6
add to favorites
launch autoscroll
font size
0
reset
how to read this tab
guitar tuner
Autoscroll
slow
fast
+/-
esc
set tempo
stop
Help us to improve Ultimate-Guitar.com Take our survey!
×
Alkaline Trio - From Here to Infirmiry Album Tab

By Turkeyrioter44, and other friends

Private Eye

Tuning: Standard
Intro/main riff
e|----------------------------------------------------------|
B|----------------------------------------------------------|
G|--12-12-12-12-12-12-11-11-14-14-14-14-12-12-12-12---------|
D|--12-12-12-12-12-12-11-11-14-14-14-14-12-12-12-12---------|
A|--10-10-10-10-10-10-9--9--12-12-12-12-10-10-10-10---------|
E|----------------------------------------------------------|

e|----------------------------------------------------------|
B|----------------------------------------------------------|
G|----------------------------------------------------------|
D|--9-9-9-9-9-9-9-9-10-10-10-10-10-10-10-10-----------------|
A|--9-9-9-9-9-9-9-9-10-10-10-10-10-10-10-10-----------------|
E|--7-7-7-7-7-7-7-7-8--8--8--8--8--8--8--8------------------|

e|----------------------------------------------------------|
B|----------------------------------------------------------|
G|--12-12-12-12-12-12-11-11-14-14-14-14-12-12-12-12---------|
D|--12-12-12-12-12-12-11-11-14-14-14-14-12-12-12-12---------|
A|--10-10-10-10-10-10-9--9--12-12-12-12-10-10-10-10---------|
E|----------------------------------------------------------|

e|----------------------------------------------------------|
B|----------------------------------------------------------|
G|----------------------------------------------------------|
D|--9-9-9-9-9-9-9-9-10-10-10-9-9----------------------------|
A|--9-9-9-9-9-9-9-9-10-10-10-9-9----------------------------|
E|--7-7-7-7-7-7-7-7-8--8--8--7-7----------------------------|

Verse (palm muted)
e|------------------------------------------------|
B|------------------------------------------------|
G|------------------------------------------------|
D|------------------------------------------------|
A|--10-10-10-10-10-10-9-9-12-12-12-12-10-10-10-10-|
E|------------------------------------------------|

e|-----------------------------------------------|
B|-----------------------------------------------|
G|-----------------------------------------------|
D|-----------------------------------------------|   times 4
A|--7-7-7-7-7-7-7-7-8-8-8-8-8-8-8-8--------------|
E|-----------------------------------------------|

Then Intro/main riff once
e|----------------------------------------------------------|
B|----------------------------------------------------------|
G|--12-12-12-12-12-12-11-11-14-14-14-14-12-12-12-12---------|
D|--12-12-12-12-12-12-11-11-14-14-14-14-12-12-12-12---------|
A|--10-10-10-10-10-10-9--9--12-12-12-12-10-10-10-10---------|
E|----------------------------------------------------------|

e|----------------------------------------------------------|
B|----------------------------------------------------------|
G|----------------------------------------------------------|
D|--9-9-9-9-9-9-9-9-10-10-10-10-10-10-10-10-----------------|
A|--9-9-9-9-9-9-9-9-10-10-10-10-10-10-10-10-----------------|
E|--7-7-7-7-7-7-7-7-8--8--8--8--8--8--8--8------------------|

Verse (palm muted)
e|------------------------------------------------|
B|------------------------------------------------|
G|------------------------------------------------|
D|------------------------------------------------|
A|--10-10-10-10-10-10-9-9-12-12-12-12-10-10-10-10-|
E|------------------------------------------------|

e|-----------------------------------------------|
B|-----------------------------------------------|
G|-----------------------------------------------|
D|-----------------------------------------------|   times 2
A|--7-7-7-7-7-7-7-7-8-8-8-8-8-8-8-8--------------|
E|-----------------------------------------------|

But end verse this time with (palm muted exept power chords)
e|--------------------------------------------------|
B|--------------------------------------------------|
G|--------12-12-------12-12-------12-12-------12-12-|
D|--------12-12-------12-12-------12-12-------12-12-|
A|--10-10-10-10-10-10-10-10-10-10-10-10-10-10-10-10-|
E|--------------------------------------------------|

e|-----------------------------------------------|
B|-----------------------------------------------|
G|-----------------------------------------------|
D|-----------------------------------------------|
A|--7-7-7-7-7-7-7-7-8-8-8-8-8-8-8-8--------------|
E|-----------------------------------------------|

e|------------------------------------------------|
B|------------------------------------------------|
G|------------------------------------------------|
D|------------------------------------------------|
A|--10-10-10-10-10-10-9-9-12-12-12-12-10-10-10-10-|
E|------------------------------------------------|

e|-----------------------------------------------|
B|-----------------------------------------------|
G|-----------------------------------------------|
D|-----------------------------------------------|
A|--7-7-7-7-7-7-7-7-8-8-8-8-8-8-8-8--------------|
E|-----------------------------------------------|

Chorus
e|--------------------------------------------------|
B|--------------------------------------------------|
G|--12-12-12-12-12-12-12-12-12-12-12-12-12-12-12-12-|
D|--12-12-12-12-12-12-12-12-12-12-12-12-12-12-12-12-|
A|--10-10-10-10-10-10-10-10-10-10-10-10-10-10-10-10-|
E|--------------------------------------------------|

e|--------------------------------------------------|
B|--------------------------------------------------|
G|--------------------------------------------------|
D|--9-9-9-9-9-9-9-9-12-12-12-12-12-12-12-12---------|
A|--9-9-9-9-9-9-9-9-12-12-12-12-12-12-12-12---------|
E|--7-7-7-7-7-7-7-7-10-10-10-10-10-10-10-10---------|

e|--------------------------------------------------|
B|--------------------------------------------------|
G|--12-12-12-12-12-12-12-12-12-12-12-12-12-12-12-12-|
D|--12-12-12-12-12-12-12-12-12-12-12-12-12-12-12-12-|
A|--10-10-10-10-10-10-10-10-10-10-10-10-10-10-10-10-|
E|--------------------------------------------------|

e|--------------------------------------------------|
B|--------------------------------------------------|
G|--------------------------------------------------|
D|--14-14-14-14-14-14-14-14-12-12-12-12-12-12-12-12-| times 2
A|--14-14-14-14-14-14-14-14-12-12-12-12-12-12-12-12-|
E|--12-12-12-12-12-12-12-12-10-10-10-10-10-10-10-10-|

Back to intro/main riff X2

Then

Verse

E----------------------------------------------------------------|
B----------------------------------------------------------------|
G--12------------------------------------------------------------|
D--12---let ring for -16 bars------------------------------------|
A--10------------------------------------------------------------|
E----------------------------------------------------------------|

Palm muted
e|------------------------------------------------|
B|------------------------------------------------|
G|------------------------------------------------|
D|------------------------------------------------|
A|--10-10-10-10-10-10-9-9-12-12-12-12-10-10-10-10-|
E|------------------------------------------------|

e|-----------------------------------------------|
B|-----------------------------------------------|
G|-----------------------------------------------|
D|-----------------------------------------------|  times 2
A|--7-7-7-7-7-7-7-7-8-8-8-8-8-8-8-8--------------|
E|-----------------------------------------------|

Chorus X2

And end it with
e|--------------------------------------------------|
B|--------------------------------------------------|
G|--10-10-10-10-10-10-10-10-10-10-10-10-10-10-10-10-|
D|--10-10-10-10-10-10-10-10-10-10-10-10-10-10-10-10-|
A|--8--8--8--8--8--8--8--8--8--8--8--8--8--8--8--8--|
E|--------------------------------------------------|

e|--------------------------------------------------|
B|--------------------------------------------------|
G|--12-12-12-12-12-12-12-12-12-12-12-12-12-12-12-12-|
D|--12-12-12-12-12-12-12-12-12-12-12-12-12-12-12-12-|
A|--10-10-10-10-10-10-10-10-10-10-10-10-10-10-10-10-|
E|--------------------------------------------------|

Then
e|---------------------------------------------------|
B|---------------------------------------------------|
G|--12-12-12-12-12-12-11-11-14-14-14-14-12-12-12-12--|
D|--12-12-12-12-12-12-11-11-14-14-14-14-12-12-12-12--|  4 times
A|--10-10-10-10-10-10-9--9--12-12-12-12-10-10-10-10--|
E|---------------------------------------------------|

and then the Chorus X2 to end with


Mr Chainsaw

Intro/Verse
---------------------------------------------------------|
-6-6-6-6-7-7-7-6-6-----7-7-7-7-7-7-7-7-------------------|
-7-7-7-7-7-7-7-7-7-----7-7-7-7-7-7-7-7-------------------| 2x
-7-7-7-7-7-7-7-7-7-----5-5-5-5-4/5-5-5-------------------|
---------------------------------------------------------|
---------------------------------------------------------|

---------------------------------------------------------|
---------------------------------------------------------|
--11-11-11-11-11--9-9-9-9-9--7-7-7-7-7-7-7-7-7-7-7--9----|
--11-11-11-11-11--9-9-9-9-9--7-7-7-7-7-7-7-7-7-7-7--9----|
--9--9--9--9--9---7-7-7-7-7--4/5-5-5-4/5-5-5-4/5-5--7----|
--9--9--9--9--9------------------------------------------|


Chorus
---------------------------------------------------------|
---------------------------------------------------------|
--2-------------------------7-7-7-7-7--9-9-9-9-9---------| 2x
--2----------2--------4-----7-7-7-7-7--9-9-9-9-9---------|
--0----------2--------4-----5-5-5-5-5--7-7-7-7-7---------|
-------------0--------2----------------------------------|


Outro
---------------------------------------------------------|
---------------------------------------------------------|
--2-2-2-2-2-2--7-7-7-7-7-7--9-9-9-9-9-9------------------| 4x
--2-2-2-2-2-2--7-7-7-7-7-7--9-9-9-9-9-9------------------|
--0-0-0-0-0-0--5-5-5-5-5-5--7-7-7-7-7-7------------------|
---------------------------------------------------------|

Order:
Intro
Verse 2x
Chorus
Verse 2x
Chorus
Outro


Take Lots With Alcohol

Intro & Verse:
---------------------------------------------------------|
---------------------------------------------------------|
--9-9-9-9-x-x--9-9-9-9-x-x--9-9-9-9---7-7-7-7---9-9-9-9--|
--7-7-7-7-x-x--7-7-7-7-x-x--7-7-7-7---7-7-7-7---9-9-9-9--|
--0-0-0-0-x-x--0-0-0-0-x-x--0-0-0-0---5-5-5-5---7-7-7-7--|
---------------------------------------------------------|


Verse ending:
-------------------------------------------------------------|
-------------------------------------------------------------|
--6-6-6-6-6---------------9-9-9--9-9-9-9---7-7-7-7---9-9-9-9-|
--6-6-6-6-6---6-6-6-6-6---x-x-x--x-x-x-x---7-7-7-7---9-9-9-9-|
--4-4-4-4-4---6-6-6-6-6---7-7-7--7-7-7-7---5-5-5-5---7-7-7-7-|
--------------4-4-4-4-4--------------------------------------|


Pre-chorus:
------------------------------------------|
------------------------------------------|
------------9-9-9-9---7-7-7-7---9-9-9-9---|
--7-7-7-7---9-9-9-9---7-7-7-7---9-9-9-9---|
--7-7-7-7---7-7-7-7---5-5-5-5---7-7-7-7---|
--5-5-5-5---------------------------------|


Outro:
---------------------------------------------------------|
---------------------------------------------------------|
---------------------------------------------------------|
---------------------------------------------------------|
-----------7-7-7-7--------------------4-4-4-4--2-2-------|
--5-5-5-5-----------2-2-2-2--0-0-0-0---------------------|


Outro Lead:
----------------------|
----------------------|
--9----7\6------------|
--x----x\x------------|
--7----5\4------------|
----------------------|

Order:
Intro 2x
Verse 4x
Verse ending
Verse 4x
Verse ending
Pre-chorus
Chorus 4x
Intro 2x
Verse 4x
Verse ending
Pre-chorus
Chorus 4x
Outro 4x
Outro Lead 7x

Stupid Kid

Intro:

-----------------------------------------------------|
-----------------------------------------------------|
-4-4-4-4---9-9--8-8--6-6--------------9-9--8-8--6-6--|
-4-4-4-4---x-x--x-x--x-x----6-6-6-6---x-x--x-x--x-x--|
-2-2-2-2---7-7--6-6--4-4----6-6-6-6---7-7--6-6--4-4--|
----------------------------4-4-4-4------------------|

Verse:

------------------------------------------|
------------------------------------------|
-4-----------------------4----------------|  X 4
-4-------4-4------2-2----4----------------|
-2-------4-4------2-2----2----------------|
---------2-2------0-0---------------------|

Interlude:

---------------------------------------------------|
---------------------------------------------------|
-4-4-4---9-9--8-8--6-6--------------9-9--8-8--6-6--|  X2
-4-4-4---x-x--x-x--x-x----6-6-6-6---x-x--x-x--x-x--|
-2-2-2---7-7--6-6--4-4----6-6-6-6---7-7--6-6--4-4--|
--------------------------4-4-4-4------------------|

Verse 2:

------------------------------------------|
------------------------------------------|
-4-----------------------4----------------|  X 4
-4-------4-4------2-2----4----------------|
-2-------4-4------2-2----2----------------|
---------2-2------0-0---------------------|

Chorus:

---------------------------------------|
---------------------------------------|
-4--------------------4----------------|  X 2
-4-------6-----4------4----------------|
-2-------6-----4------2----------------|
---------4-----2-----------------------|

---------------------------------------|
---------------------------------------|
-4-------------------------------------|
-4-------6-----4------2----------------|
-2-------6-----4------2----------------|
---------4-----2------0----------------|

Verse 3:

------------------------------------------|
------------------------------------------|
-4-----------------------4----------------|  X 4
-4-------4-4------2-2----4----------------|
-2-------4-4------2-2----2----------------|
---------2-2------0-0---------------------|

Chorus:

---------------------------------------|
---------------------------------------|
-4--------------------4----------------|  X 2
-4-------6-----4------4----------------|
-2-------6-----4------2----------------|
---------4-----2-----------------------|

---------------------------------------|
---------------------------------------|
-4-------------------------------------|
-4-------6-----4------2----------------|
-2-------6-----4------2----------------|
---------4-----2------0----------------|

Interlude:

---------------------------------------------------|
---------------------------------------------------|
-4-4-4---9-9--8-8--6-6--------------9-9--8-8--6-6--|  X2
-4-4-4---x-x--x-x--x-x----6-6-6-6---x-x--x-x--x-x--|
-2-2-2---7-7--6-6--4-4----6-6-6-6---7-7--6-6--4-4--|
--------------------------4-4-4-4------------------|

Bridge:

---------------------------|
---------------------------|
-4-4-4-4---9-9--8-8--6-6---|
-4-4-4-4---x-x--x-x--x-x---|
-2-2-2-2---7-7--6-6--4-4---|
---------------------------|

Final Chorus:

---------------------------------------|
---------------------------------------|
-4--------------------4----------------|  X 3
-4-------6-----4------4----------------|
-2-------6-----4------2----------------|
---------4-----2-----------------------|


ANOTHER INNOCENT GIRL

By:Justin Cloude(faded5150@islc.net)

I think this is right, if it's not...O well, it sounds right to me.
Listen to the album for the exact rhythms and positionings. ENJOY!!!

"1st Pre-verse"
e|--------------------------------------------------------------------|
B|--------------------------------------------------------------------|
G|--6--6666666-----------77777777777--6666666-----------7777777777----|
D|-----7777777--6666666--77777777777--7777777--6666666--7777777777----|
A|-----7777777--7777777--55555555555--7777777--7777777--5555555555----|
E|-----5555555------------------------5555555-------------------------|

"1st Verse"-
He likes to act like he's all grown up.
He wanted to grow up to be
An actor, but he never told anybody.
He likes to spill all of his guts
On the top of a well-stocked bar,
And then swallow them bit by bit, remembering every scar.
e|--------------------------------------------------------------------|
B|-----5--------------------5-----5-----5---------5-----5-----5-------|
G|--6--------------------6-----6-----6--6------6-----6-----6--6-------|
D|--------------------------------------0---------------------0-------|
A|--------------------------------------------------------------------|
E|--------------------------------------------------------------------|

"1st Pre-chorus"-
It's a valid reason
For every drink.
And a new tattoo is a new reason to think.
e|--------------------------------------------------------------------|
B|--------------------------------------------------------------------|
G|------------------444444/66--7777777--------------------77777777777-|
D|------------------444444/66--7777777--4444444--2222222--77777777777-|
A|--444444--222222--222222/44--5555555--4444444--2222222--55555555555-|
E|--222222--000000----------------------2222222--0000000--------------|
    ******  ******

"2nd Pre-verse"
e|--------------------------------------------------------------------|
B|--------------------------------------------------------------------|
G|--6666666-----------77777777777--6666666-----------7777777777-------|
D|--7777777--6666666--77777777777--7777777--6666666--7777777777-------|
A|--7777777--7777777--55555555555--7777777--7777777--5555555555-------|
E|--5555555------------------------5555555----------------------------|

"2nd Verse"-
He likes to pretend that he's all sewn up.
It makes for a much stronger case,
But there is blood underneath that skin
That scar is not so easy to erase.
He walks with a glass cane now.
He's careful, when holding his body up straight.
Can't go outside anymore when it's raining.
Can't smash up that beautiful face.
e|--------------------------------------------------------------------|
B|-----5--------------------5-----5-----5---------5-----5-----5-------|
G|--6--------------------6-----6-----6--6------6-----6-----6--6-------|
D|--------------------------------------0---------------------0-------|
A|--------------------------------------------------------------------|
E|--------------------------------------------------------------------|

"2nd Pre-chorus"-
Another innocent girl, just made his list.
That self-pity shit, It's just too hard to resist.
e|--------------------------------------------------------------------|
B|--------------------------------------------------------------------|
G|------------------444444/66--7777777--------------------77777777777-|
D|------------------444444/66--7777777--4444444--2222222--77777777777-|
A|--444444--222222--222222/44--5555555--4444444--2222222--55555555555-|
E|--222222--000000----------------------2222222--0000000--------------|
    ******  ******
e|---------|
B|---------|
G|--5/7/9--|
D|--x/x/x--|
A|--3/5/7--|
E|---------|

"1st Chorus"-
Yeah, when we go home, you'll see,
That this part of him is now part of me.
e|--------------------------------------------------------------------|
B|--------------------------------------------------------------------|
G|--666666--777777--999999--7777777--666666--777777--999999--7777777--|
D|--777777--777777--777777--7777777--777777--777777--777777--7777777--|
A|--777777--777777--777777--5555555--777777--777777--777777--5555555--|
E|--555555--555555--555555-----------555555--555555--555555-----------|

"3rd Pre-verse"
e|--------------------------------------------------------------------|
B|--------------------------------------------------------------------|
G|--6666666-----------77777777777--6666666-----------7777777777-------|
D|--7777777--6666666--77777777777--7777777--6666666--7777777777-------|
A|--7777777--7777777--55555555555--7777777--7777777--5555555555-------|
E|--5555555------------------------5555555----------------------------|

"3rd Verse"-
He likes to act like he's all grown up.
He wanted to grow up to be
An actor, but he never told anybody.
He likes to spill all of his guts
On the top of a well-stocked bar,
And then swallow them bit by bit, remembering every scar
e|--------------------------------------------------------------------|
B|-----5--------------------5-----5-----5---------5-----5-----5-------|
G|--6--------------------6-----6-----6--6------6-----6-----6--6-------|
D|--------------------------------------0---------------------0-------|
A|--------------------------------------------------------------------|
E|--------------------------------------------------------------------|

"3rd Pre-chorus"-
It's a valid reason
For stronger drinks.
And a new tattoo is a new reason to think.
e|--------------------------------------------------------------------|
B|--------------------------------------------------------------------|
G|------------------444444/66--7777777--------------------77777777777-|
D|------------------444444/66--7777777--4444444--2222222--77777777777-|
A|--444444--222222--222222/44--5555555--4444444--2222222--55555555555-|
E|--222222--000000----------------------2222222--0000000--------------|
    ******  ******
e|---------|
B|---------|
G|--5/7/9--|
D|--x/x/x--|
A|--3/5/7--|
E|---------|

"2nd Chorus"-
Yeah, when we go home, you'll see,
That this part of him is now part of me.
Yeah, when we go home, you'll see,
That this part of him is controlling me.
e|--------------------------------------------------------------------|
B|--------------------------------------------------------------------|
G|--666666--777777--999999--7777777--666666--777777--999999--7777777--|
D|--777777--777777--777777--7777777--777777--777777--777777--7777777--|
A|--777777--777777--777777--5555555--777777--777777--777777--5555555--|
E|--555555--555555--555555-----------555555--555555--555555-----------|

e|--------------------------------------------------------------------|
B|--------------------------------------------------------------------|
G|--666666--777777--999999--7777777--666666--777777--999999--7777777--|
D|--777777--777777--777777--7777777--777777--777777--777777--7777777--|
A|--777777--777777--777777--5555555--777777--777777--777777--5555555--|
E|--555555--555555--555555-----------555555--555555--555555-----------|

"Outro"-
Yeah it's way to easy to fake this smile,
Lead you on.
Well maybe I'm wrong,
But everyone gets borerd once in a while.
e|----------------------------------------------------------|
B|----------------------------------------------------------|
G|------------77777777------------77777777--6666--4444------|
D|--22222222--xxxxxxxx--22222222--xxxxxxxx--xxxx--xxxx--7---|
A|--22222222--55555555--22222222--55555555--4444--2222--7---|
E|--00000000------------00000000------------------------5---|


Steamer Trunk

Intro:
---------------------------------------------------|
---------------------------------------------------|
----------------------11-11-11-11-11---9-9-9-9-9---|
-11-11-11-11-11-9-9---11-11-11-11-11---9-9-9-9-9---|
-0--0--0--0--0--0-0---9--9--9--9--9----7-7-7-7-7---|
---------------------------------------------------|


Verse:
------------------------------------|
------------------------------------|
-2----------9\--------6--------9\---|
-2----------9\--------4--------9\---|
-0----------7\-----------------7\---|
------------------------------------|


First Verse Fill:
-------------------------------|
-------------------------------|
--------------7-7-7-7-7----9---|
-2-2-2-2-2----7-7-7-7-7----9---|
-2-2-2-2-2----5-5-5-5-5----7---|
-0-0-0-0-0-----------------7---|


Pre-chorus:
----------------------------------------|
----------------------------------------|
-------------7-7-7-7-7---6-6-6---4-4----|
-2-2-2-2-2---x-x-x-x-x---x-x-x---x-x----|
-2-2-2-2-2---5-5-5-5-5---4-4-4---2-2----|
-0-0-0-0-0------------------------------|


Chorus:
--------------------------------------------------------|
--------------------------------------------------------|
-2-2-2-2---7-7-7-7--------------------------------------|
-2-2-2-2---7-7-7-7---4-4-4-4---2-2-2-2------------------|
-0-0-0-0---5-5-5-5---4-4-4-4---2-2-2-2---4-4-4--2-2-2---|
---------------------2-2-2-2---0-0-0-0------------------|


Interlude:
---------------------------|
---------------------------|
----------9---------9------|
------11-----11--11---11---|
--12-----------------------|
---------------------------|


Order:
Intro 2x
Verse 3x
First Verse Fill
Intro 2x
Verse 3x
Pre-chorus
Chorus 2x
Intro 2x
Verse 3x
Pre-chorus
Chorus 2x
Interlude 8x
Chorus 2x


You're Dead

Intro

e-------------------------------------|
b-------------------------------------|
g-11~1313131313131313131313-1111111111
d-x~-x-x-x-x-x-x-x-x-x-x-x-x-x-x-x-x-x-|
a-9~11111111111111111111111-9--9--9--9-|
e--------------------------------------|

e---------------------------------------|
b---------------------------------------|
g-11~-1313131313131313131313------------|
d-----x-x-x-x-x-x-x-x-x-x-x--99997777---|
a-9~-11111111111111111111111-99997777---|
e----------------------------77775555 R-|x2


Verse 1
"What the hell is your name?"

e----------------------------------------|
b----------------------------------------|
g11~-13------11---11-13------------------|
d-x~--x-------x----x--x-------99997777---|
a-9~-11-------9----9-11-------99997777---|
e-----------------------------77775555 R-|x2

"Cuz if ....... could fly"
e-----------------------------------------------------|
b-----------------------------------------------------|
g-11-131313131313--1111111111--131313131313-----------|
d-x--x-x-x-x-x-x-x--x-x-x-x-x--x-x-x-x-x-x-x-99997777-|
a-9--1111111111111-9--9--9--9--1111111111111-99997777-|
e--------------------------------------------77775555-|

"Theres proof in the sky"
e---------------------------------------------|
b---------------------------------------------|
g-11-1313131313131313131313-------------------|
d-x--x-x-x-x-x-x-x-x-x-x-x--7777777799999999--|
a-9-11111111111111111111111-7777777799999999--|
e---------------------------5555555577777777--|

Chourus 1 with no words
e------------------------------------------------------|
b------------------------------------------------------|
g-9--1111111--9----------9---1111111-9-----------------|
d-x--x-x-x-x--x-7777777--x---x-x-x-x-x--99999999-------|
a-7--9-9-9-9--7-xxxxxxx--7---9-9-9-9-7--99999999-------|
e---------------55555555----------------77777777-------|

Verse 2
"I have something to say"
e----------------------------------------|
b----------------------------------------|
g11~-13------11---11-13------------------|
d-x~--x-------x----x--x-------99997777---|
a-9~-11-------9----9-11-------99997777---|
e-----------------------------77775555 R-|x2

e-----------------------------------------------------|
b-----------------------------------------------------|
g-11-131313131313--1111111111--131313131313-----------|
d-x--x-x-x-x-x-x-x--x-x-x-x-x--x-x-x-x-x-x-x-99997777-|
a-9--1111111111111-9--9--9--9--1111111111111-99997777-|
e--------------------------------------------77775555-|

It all sounds well and fine
e---------------------------------------------|
b---------------------------------------------|
g-11-1313131313131313131313-------------------|
d-x--x-x-x-x-x-x-x-x-x-x-x--7777777799999999--|
a-9-11111111111111111111111-7777777799999999--|
e---------------------------5555555577777777--|

Chorus 2 with words

e---------------------------------------------|
b---------------------------------------------|
g-9--1111111-9-----------9-1111111-9----------|
d-x--x-x-x-x-x--99999999-x-x-x-x-x-x-77777777-|
a-7--9-9-9-9-7--99999999-7-9-9-9-9-7-xxxxxxxx-|
e---------------77777777-------------55555555-|

e---------------------------------------------|
b---------------------------------------------|
g-9--1111111-9--------------------------------|
d-x--x-x-x-x-x -999999997777777777777777------|
a-7--9-9-9-9-7--99999999xxxxxxxxxxxxxxxx------|
e---------------777777775555555555555555------|

Intro before the second verse

e-------------------------------------|
b-------------------------------------|
g-11~1313131313131313131313-1111111111
d-x~-x-x-x-x-x-x-x-x-x-x-x-x-x-x-x-x-x-|
a-9~11111111111111111111111-9--9--9--9-|
e--------------------------------------|

e---------------------------------------|
b---------------------------------------|
g-11~-1313131313131313131313------------|
d-----x-x-x-x-x-x-x-x-x-x-x--99997777---|
a-9~-11111111111111111111111-99997777---|
e----------------------------77775555 R-|x2

Chorus 3

e---------------------------------------------|
b---------------------------------------------|
g-9--1111111-9-----------9-1111111-9----------|
d-x--x-x-x-x-x--99999999-x-x-x-x-x-x-77777777-|
a-7--9-9-9-9-7--99999999-7-9-9-9-9-7-xxxxxxxx-|
e---------------77777777-------------55555555-|

e--------------------------------------------|
b--------------------------------------------|
g-9--1111111-9-------------------------------|
d-x--x-x-x-x-x -999999997777777777777777-----|
a-7--9-9-9-9-7--99999999xxxxxxxxxxxxxxxx-----|
e---------------777777775555555555555555-----|

Middle Bit

"and all the times we shared talking about it"
e-----------------------------------------------|
b-----------------------------------------------|
g-----------------------------------------------|
d11111111111111111111111111111119999999977777777
a11111111111111111111111111111119999999977777777
e9-9-9-9-9-9-9-9-9-9-9-9-9-9-9-97777777755555555

Chorus 4

e---------------------------------------------|
b---------------------------------------------|
g-9--1111111-9-----------9-1111111-9----------|
d-x--x-x-x-x-x--99999999-x-x-x-x-x-x-77777777-|
a-7--9-9-9-9-7--99999999-7-9-9-9-9-7-xxxxxxxx-|
e---------------77777777-------------55555555-|

e--------------------------------------------|
b--------------------------------------------|
g-9--1111111-9-------------------------------|
d-x--x-x-x-x-x -999999997777777777777777-----|
a-7--9-9-9-9-7--99999999xxxxxxxxxxxxxxxx-----|
e---------------777777775555555555555555-----|

Armageddon


Intro
---------------------------------|
---------------------------------|
----------------99999988---------|
9999664499996644--------44444444-|
7777442277774422--------22222222-|
---------------------------------|

Verse

"I Wrote these words to this song on the back of a photograph"

--------------------------------|
--------------------------------|
--------------------------------|
66666666999944446666666699994444
44444444777722224444444477772222
-------------------------------- (x2)

Intro Before Second Verse
----------------|
----------------|
----------------|
9999664499996644
7777442277774422
----------------


Second Verse
--------------------------------|
--------------------------------|
--------------------------------|
66666666999944446666666699994444
44444444777722224444444477772222
-------------------------------- (x2)


Chorus

--------------------------------|
--------------------------------|
--------------------------------|
99999999999999996666666644442222
77777777777777774444444422220000
-------------------------------- (x2)


Intro Before third verse
---------------------------------|
---------------------------------|
----------------99999988---------|
9999664499996644--------44444444-|
7777442277774422--------22222222-|
---------------------------------|


Third Verse
----------------------------------|
----------------------------------|
----------------------------------|
6-------9---4----6666666699994444-|
4-------7---2----4444444477772222-| (x2) Don't Strum once
----------------------------------|
second time round


Chorus

--------------------------------|
--------------------------------|
--------------------------------|
99999999999999996666666644442222
77777777777777774444444422220000
-------------------------------- (x2)

Middle Bit
----------------|
----------------|
----------------|
6666444422222222
4444222200000000 (x4)
----------------
 Last Courus

--------------------------------|
--------------------------------|
--------------------------------|
99999999999999996666666644442222
77777777777777774444444422220000
-------------------------------- (x2)

I'M DYING TOMORROW

* - palm mute

CHORUS
e|---------------------------------------------------------------|
B|---------------------------------------------------------------|
G|----------------999999999999999--------------------------------|
D|--99999--88888--999999999999999--99999--88888--22222222222222--|
A|--99999--88888--777777777777777--99999--88888--22222222222222--|
E|--77777--66666-------------------77777--66666--00000000000000--|

e|---------------------------------------------------------------|
B|---------------------------------------------------------------|
G|----------------999999999999999--------------------------------|
D|--99999--88888--999999999999999--99999--88888---7---2----------|
A|--99999--88888--777777777777777--99999--88888---7---2----------|
E|--77777--66666-------------------77777--66666---5---0----------|

VERSE 1
e|---------------------------------------------------------------|
B|---------------------------------------------------------------|
G|--------------------------------------------9-----8----9---8---|
D|--9------------------------------------------------------------|
A|--9------------7777777777--------------7777---777---77---7-----|
E|--7-777777777--------------7777777777--------------------------|
********* ********** ********** **** *** ** *

e|---------------------------------------------------------------|
B|---------------------------------------------------------------|
G|---------------------------------------------------------------|
D|--9--9----------------------------------------------444444444--|
A|--9--9----------------------------------------------444444444--|
E|--7--7-7777777--6666666--5555555--00000000--22222222222222222--|
******* ******* ******* ******** ********

PRE-CHORUS
e|---------------------------------------------------------------|
B|---------------------------------------------------------------|
G|----------------999999999999999-----------------9999999999-----|
D|--999999999999--999999999999999--99999--888888--9999999999-----|
A|--999999999999--777777777777777--99999--888888--7777777777-----|
E|--777777777777-------------------77777--666666-----------------|

e|---------------------------------------------------------------|
B|---------------------------------------------------------------|
G|---------------------------------------------------------------|
D|--999999999--8888888888--77777777777--22222222222--44444444444-|
A|--999999999--8888888888--77777777777--22222222222--44444444444-|
E|--777777777--6666666666--55555555555--00000000000--22222222222-|

e|---------------------------------|
B|---------------------------------|
G|--999999999999999999999----------|
D|--XXXXXXXXXXXXXXXXXXXXX----------|
A|--777777777777777777777----------|
E|---------------------------------|

CHORUS
e|---------------------------------------------------------------|
B|---------------------------------------------------------------|
G|----------------999999999999999--------------------------------|
D|--99999--88888--999999999999999--99999--88888--22222222222222--|
A|--99999--88888--777777777777777--99999--88888--22222222222222--|
E|--77777--66666-------------------77777--66666--00000000000000--|

e|---------------------------------------------------------------|
B|---------------------------------------------------------------|
G|------------------999999999999999------------------------------|
D|--99999--88888--999999999999999--99999--88888---7---2----------|
A|--99999--88888--777777777777777--99999--88888---7---2----------|
E|--77777--66666-------------------77777--66666---5---0----------|

VERSE 2
e|---------------------------------------------------------------|
B|---------------------------------------------------------------|
G|--------------------------------------------9-----8----9---8---|
D|--9------------------------------------------------------------|
A|--9------------7777777777--------------7777---777---77---7-----|
E|--7-777777777--------------7777777777--------------------------|
********* ********** ********** **** *** ** *

e|---------------------------------------------------------------|
B|---------------------------------------------------------------|
G|---------------------------------------------------------------|
D|--9--9----------------------------------------------444444444--|
A|--9--9----------------------------------------------444444444--|
E|--7--7-7777777--6666666--5555555--00000000--22222222222222222--|
******* ******* ******* ******** ********

PRE-CHORUS
e|---------------------------------------------------------------|
B|---------------------------------------------------------------|
G|----------------999999999999999-----------------9999999999-----|
D|--999999999999--999999999999999--99999--888888--9999999999-----|
A|--999999999999--777777777777777--99999--888888--7777777777-----|
E|--777777777777-------------------77777--666666-----------------|

e|---------------------------------------------------------------|
B|---------------------------------------------------------------|
G|---------------------------------------------------------------|
D|--999999999--8888888888--77777777777--22222222222--44444444444-|
A|--999999999--8888888888--77777777777--22222222222--44444444444-|
E|--777777777--6666666666--55555555555--00000000000--22222222222-|

e|---------------------------------|
B|---------------------------------|
G|--999999999999999999999----------|
D|--XXXXXXXXXXXXXXXXXXXXX----------|
A|--777777777777777777777----------|
E|---------------------------------|

CHORUS
e|---------------------------------------------------------------|
B|---------------------------------------------------------------|
G|----------------999999999999999--------------------------------|
D|--99999--88888--999999999999999--99999--88888--22222222222222--|
A|--99999--88888--777777777777777--99999--88888--22222222222222--|
E|--77777--66666-------------------77777--66666--00000000000000--|

e|---------------------------------------------------------------|
B|---------------------------------------------------------------|
G|------------------999999999999999------------------------------|
D|--99999--88888--999999999999999--99999--88888---7---2--99------|
A|--99999--88888--777777777777777--99999--88888---7---2--99------|
E|--77777--66666-------------------77777--66666---5---0--77------|

Bloodied Up


Intro
e|----------------------------------------------------|
B|----------------------------------------------------|
G|----------------------------------------2-----------|
D|---9999--11-11-11-11----7-x-6-x-7-x-6-x-2-----------|
A|---0000--0--0--0--0-----4-x-4-x-5-x-5-x-0-----------|
E|---0000--0--0--0--0-----0-x-0-x-0-x-0-x-0-----------|

Verse
e|-------------------------------------------------|
B|-------------------------------------------------|
G|-------------6---------7-------------------------|
D|---7---------6---------7-------------------------|
A|---7---------4---------5-------------------------|
E|---5---------------------------------------------|
~~~~~~~~~P.M~~~~~~~~~~~P.M~~~~~~~~~~~P.M~~~~~~~~~~~
Listen for strumming.......

Chorus
e|--------------------------------------------------|
B|--------------------------------------------------|
G|---------------------------------7---------9------|
D|----7---------4---------2--------7---------9------|
A|----7---------4---------2--------5---------7------|
E|----5---------2---------0-------------------------|
Listen for strumming...... (same as fast part)

Ending bridge
e|----------------------------------------------------|
B|----------------------------------------------------|
G|---9-------7---------6----|-----4----6-----4-----7--|
D|---x-------x---------x----|-----x----x-----x-----x--|
A|---7-------5---------4----|-----2----4-----2-----5--|
E|----------------------------------------------------|
Listen for strumming.......

Ending
e|-------------------------------------------------------|
B|-------------------------------------------------------|
G|---14--------11---9----13----14----7---9---7-----------|
D|---xx---11---x----x----xx----xx----x---x---x---7----7--|
A|---12---x----9----7----11----12----5---7---5---7----7--|
E|--------9--------------------------------------5----5--|
Listen for strumming......


Trucks and Trains

Intro
-----------------------------------------------------|
-----------------------------------------------------|
---16-16-18-18-19-19-21-21-19-19-18-18-19-19-18-18---|
---x--x--x--x--x--x--x--x--x--x--x--x--x--x--x--x----|
---14-14-16-16-17-17-19-19-17-17-16-16-17-17-16-16---|
-----------------------------------------------------|

---------------------------------------------|
---------------------------------------------|
--11-11-11-11-11-11-12-12-12-12-11-11-11-----|
--x--x--x--x--x--x--x--x--x--x--x--x--x------|
--9--9--9--9--9--9--10-10-10-10-9--9--9------|
---------------------------------------------|


VERSE HAS NO GUITAR PARTS


Pre-chorus
---------------------------------|
---------------------------------|
---------------------------------|
---------------------------------|
--5-5-5-5-5-5---7-7-7-7-7--------|
--3-3-3-3-3-3---5-5-5-5-5--------|
  p.m.-------   p.m.-------------|


Chorus
--------------------------------------------|
--------------------------------------------|
--7-7-7-7-7-7-7-----------------------------| 3x
--7-7-7-7-7-7-7---7-7-7-7---5-5-5-5-5-5-----|
--5-5-5-5-5-5-5---7-7-7-7---5-5-5-5-5-5-----|
------------------5-5-5-5---3-3-3-3-3-3-----|

On 3rd time end chorus riff with:
----------------------------------------------|
----------------------------------------------|
----------------------------------------------|
--7-7-7-7-7-7-7-7-7-7----5-5-5-5-5---7-7-7-7--|
--7-7-7-7-7-7-7-7-7-7----5-5-5-5-5---7-7-7-7--|
--5-5-5-5-5-5-5-5-5-5----3-3-3-3-3---5-5-5-5--|


Bridge:
-----------------------------------------------------|
-----------------------------------------------------|
--16-16-18-18-19-19-21-21-19-19-18-18-19-19-18-18----| 4x
--x--x--x--x--x--x--x--x--x--x--x--x--x--x--x--x-----|
--14-14-16-16-17-17-19-19-17-17-16-16-17-17-16-16----|
-----------------------------------------------------|


Interlude                                   D
------------------------------------------------------|
------------------------------------------------------|
--------------------------------------------7-7\------| 4x
--9-9-9-9-9--7-7-7-7-7--5-5-5-5-5--4-4-4----7-7\------|
--9-9-9-9-9--7-7-7-7-7--5-5-5-5-5--4-4-4----5-5\------|
--7-7-7-7-7--5-5-5-5-5--3-3-3-3-3--2-2-2--------------|
  p.m.------------------------------------------------|


Order:
Intro
Pre-chorus
Chorus
Intro
Pre-chorus
Chorus
Bridge
Interlude
Chorus
End on D

Crawl

standard tuning

intro
{a}
E----------------------------------------|
B----------------------------------------|
G----------------------------------------|
D--6-6-6-6-6-6-6-6--4-4-4-4-2-2-2-2------|
A--4-4-4-4-4-4-4-4--0-0-0-0-0-0-0-0------|
D----------------------------------------|
{b}
E------------------------------------------|
B------------------------------------------|
G------------------------------------------|
D--4-4-4-4-4-4-4-4--6-6-4-4-1-1-2-2--------|
A--2-2-2-2-2-2-2-2--0-0-0-0-0-0-0-0--------|
E------------------------------------------|
{c}
E----------------------------------------|
B----------------------------------------|
G----------------------------------------|
D--6-6-6-6-6-6-6-6--4-4-4-4-2-2-2-2--0~--|
A--4-4-4-4-4-4-4-4--0-0-0-0-0-0-0-0--2~--|
E------------------------------------0~--|

Well thats it boys and girls I hope you enjoy the first ever album
tab from these guys.  Alkaline trio is the poo.  if You have any
questions or comments e-mail me @ turkeyrioter44@yahoo.com.
Peace.
Suggest correction
comments
print report bad tab
5 comments total. Showing first comments.
0 reply
isjoeythere 10 Mar 12, 2005 12:00 AM

Pretty good

0 reply
Letterbomb11 10 Sep 03, 2005 12:00 AM

crawl is really incomplete

0 reply
BlinkDay182 699 May 05, 2006 09:20 PM

The tabs for most of these songs are way off
ex. Armageddon, Mr. Chainsaw, Crawl, Private Eye, ......

guest
You may want to rate the tab now too:
select rating
Wanna post a correction for this tab? Suggest correction