Oops, an error
Loading. Please wait.

I Wanna Be A Warhol Tab

version 1
version 1

Whole song

Interactive

12,445 views 51 this week
2 commentsread comments
1 2 3 4 5
accurate
x 12
add to favorites
launch autoscroll
font size
0
reset
how to read this tab
guitar tuner
Autoscroll
slow
fast
+/-
esc
set tempo
stop
Help us to improve Ultimate-Guitar.com Take our survey!
×
Author
Difficulty
Alkaline Trio - I Wanna Be A Warhol

Tabbed By: SpreadSomeLove
Standard Tuning

Intro (Guitar 1)
e|----------------------------------------------------------------|
B|----------------------------------------------------------------|
G|--------------------------------5-5-5-5-5-5-5-5-5-5-5-5-5-5-5-5-|
D|7-7-7-7-7-7-7-7-3-3-3-3-3-3-3-3-5-5-5-5-5-5-5-5-5-5-5-5-5-5-5-5-|
A|7-7-7-7-7-7-7-7-3-3-3-3-3-3-3-3-3-3-3-3-3-3-3-3-3-3-3-3-3-3-3-3-|
E|5-5-5-5-5-5-5-5-1-1-1-1-1-1-1-1---------------------------------|

e|---------------------------------------------------------------|
B|---------------------------------------------------------------|
G|---------------------------------------------------------------|
D|7-7-7-7-7-7-7-7-3-3-3-3-3-3-3-3-5------------------------------|
A|7-7-7-7-7-7-7-7-3-3-3-3-3-3-3-3-5--5-5-5-5-5-5-5-5-5-5-5-5-5-5-|
E|5-5-5-5-5-5-5-5-1-1-1-1-1-1-1-1-3--3-3-3-3-3-3-3-3-3-3-3-3-3-3-|
                                     . . . . . . . . . . . . . .
Intro (Guitar 2)
e|----------------------------------------------------------------|
B|----------------------------------------------------------------|
G|9-9-9-9-9-9-9-9-10101010101010105-5-5-5-5-5-5-5-5-5-5-5-5-5-5-5-|
D|----------------------------------------------------------------|
A|7-7-7-7-7-7-7-7-8-8-8-8-8-8-8-8-3-3-3-3-3-3-3-3-3-3-3-3-3-3-3-3-|
E|----------------------------------------------------------------|

e|-----------------------------|
B|-----------------------------|
G|-----------------------------|
D|-----------------------------|
A|-----------------------------|
E|8----7----5----1----3--------| 

Verse
e|--------------------------------------------------------|
B|--------------------------------------------------------|
G|9-9--9-9-9--9-1010-109-9--9-1010-101010-105-5--5-7-7--7-| 
D|7-7--7-7-7--7-7-7--7-7-7--7-1010-101010-105-5--5-7-7--7-| 3x
A|0-0--0-0-0--0-0-0--0-0-0--0-8-8--8-8-8--8-3-3--3-5-5--5-|
E|--------------------------------------------------------|

e|-----------------------------------------------------------|
B|-----------------------------------------------------------|
G|9-9--9-9-9--9-1010-109-9--9--------------------------------| 
D|7-7--7-7-7--7-7-7--7-7-7--7-5--5-5-5-5-5-5-5-5-5-5-5-5-5-5-|
A|0-0--0-0-0--0-0-0--0-0-0--0-5--5-5-5-5-5-5-5-5-5-5-5-5-5-5-|
E|----------------------------3--3-3-3-3-3-3-3-3-3-3-3-3-3-3-|
                                 . . . . . . . . . . . . . .

Chorus
e|----------------------------------------------------------------|
B|----------------------------------------------------------------|
G|----------------------------------------------------------------|
D|101010101010101010101010101010107-7-7-7-7-7-7-7-7-7-7-7-7-7-7-7-|
A|101010101010101010101010101010107-7-7-7-7-7-7-7-7-7-7-7-7-7-7-7-|
E|8-8-8-8-8-8-8-8-8-8-8-8-8-8-8-8-5-5-5-5-5-5-5-5-5-5-5-5-5-5-5-5-|

e|----------------------------------------------------------------|
B|----------------------------------------------------------------|
G|----------------------------------------------------------------| Repeat 
D|5-5-5-5-5-5-5-5-5-5-5-5-5-5-5-5-3-3-3-3-3-3-3-3-3-3-3-3-3-3-3-3-| Chorus
A|5-5-5-5-5-5-5-5-5-5-5-5-5-5-5-5-3-3-3-3-3-3-3-3-3-3-3-3-3-3-3-3-| 2x
E|3-3-3-3-3-3-3-3-3-3-3-3-3-3-3-3-1-1-1-1-1-1-1-1-1-1-1-1-1-1-1-1-|

Pre-Verse
e|---------------------------------------------------------------|
B|---------------------------------------------------------------|
G|9-9-9-9-9-9-9-9-9-9-9-9-9/109--9-9-9-9-9-9-9-9-9-9-9-9-9-9-9-9-|
D|---------------------------------------------------------------|
A|7-7-7-7-7-7-7-7-7-7-7-7-7/8\7--7-7-7-7-7-7-7-7-7-7-7-7-7-7-7-7-|
E|---------------------------------------------------------------|

e|---------------------------------------------------|
B|---------------------------------------------------|
G|---------------------------------------------------|
D|---------------------------------------------------|
A|-----------------------5-5-5-5-5-5-5-5-5-5-5-5-5-5-|
E|8----7----5----1----3--3-3-3-3-3-3-3-3-3-3-3-3-3-3-|
                         . . . . . . . . . . . . . . 

Repeat Verse

Repeat Chorus

Bridge
e|--------------------------------------------------------------------|
B|--------------------------------------------------------------------|
G|--------------------------------------------------------------------|
D|7---------------------------------7---------------------------------|
A|7------------------------3--------7----------------3--------5-------|
E|5---------------1-----------------5---------------------------------|

e|----------------------------------------------------------------------------|
B|----------------------------------------------------------------------------|
G|----------------------------------------------------------------------------|
D|7---------------------------------7-----------------------------------------|
A|7------------------------3--------7-----------------------------5-5-5-5-5-5-|
E|5---------------1-----------------5----------------1---------3--3-3-3-3-3-3-|
                                                                  . . . . . .

e|------------------------------------------------|
B|------------------------------------------------|
G|------------------------------------------------|
D|------------------------------------------------|
A|5-5-5-5-5-5-5-5-5-5-5-5-5-5-5-5-5-5-5-5-5-5-5-5-|
E|3-3-3-3-3-3-3-3-3-3-3-3-3-3-3-3-3-3-3-3-3-3-3-3-|
  . . . . . . . . . . . . . . . . . . . . . . . .

Final Chorus (Guitar 1 plays Chorus riff 3x, while Guitar 2 plays):
e|----------------------------------------------------------------------------------------|
B|----------------------------------------------------------------------------------------|
G|--------5--------4------------5--------4------------5--------4------------10-------9----| 3x
D|-----5--------5------------5--------5------------5--------5------------10-------10------|
A|--3--------3------------0--------0----------------------------------8--------8----------|
E|----------------------------------------------3--------3--------------------------------|

Outro
e|-----------------------------------------------------------|
B|-----------------------------------------------------------|
G|-----------------------------------------------------------|
D|7--------3--------5------------------------7---------------|
A|7--------3--------5------------------------7---------------|
E|5--------1--------3------------------------5---------------|


************************************

| /   slide up
| \   slide down
| .   Mute note

************************************

That's about it. Please rate and comment!
Suggest correction
comments
print report bad tab
2 comments total.
0 reply
BrokenStringz 10 wrote on April 5 2013, 02:48 pm

Sounds good to me, almost exactly how i figured it out as well. Great job! How about the synth parts? I would do the octaves of C,D,E (starting @ 3rd position to replicate the "Oh...oh...ohhhh...") then C,G,E (for "Oh...OH...ohhhh..." Please try it and let me know if you agree. Thanks for tabbing this out! Rock on!

0 reply
SpreadSomeLove 559 wrote on April 7 2013, 12:21 pm

Thanks for the comment, I appreciate it. And yes, that sounds right to me!

guest
You may want to rate the tab now too:
select rating
Please do not post tabs as comments. Select "correction" instead!