Oops, an error
Loading. Please wait.

I Was A Prayer bass

version 1
version 1

Whole song

Interactive

862 views 1 this week
no commentswrite comment
1 2 3 4 5
2 more votes to show rating
add to favorites
×
Save as Personal and add changes to this tab that will be seen only by you. Learn more ›
×
You can save this tab as Personal to edit and correct it or add notes. All changes will be seen only by you. Learn more »
launch autoscroll
font size
0
reset
guitar tuner
edit
Autoscroll
slow
fast
+/-
esc
set tempo
stop
SONG: I Was a Prayer
ALBUM: Crimson
ARTIST: Alkaline Trio

INTRO

G|-----|---------------------------------|----------------------------------|
D|-----|---------------------------------|-----------------------------0////|
A|-----|---------------------------------|----------------------------------|
E|-----|-3---3---3---3---3---3---3---3---|-3---3---3---3---3---3---3--------|
   + +   1 + + + 2 + + + 3 + + + 4 + + +   1 + + + 2 + + + 3 + + + 4 + + +

G|----------------------------------|----------------------------------|
D|-5---5---5---5---5---5---5---5----|-5---5---5---5---5---5---5---5----|
A|----------------------------------|----------------------------------|
E|----------------------------------|----------------------------------|
   1 + + + 2 + + + 3 + + + 4 + + +    1 + + + 2 + + + 3 + + + 4 + + +

G|----------------------------------|----------------------------------|
D|----------------------------------|----------------------------------|
A|----------------------------------|----------------------------------|
E|-3---3---3---3---3---3---3---3----|-3---3---3---3---3---3---3---3----|
   1 + + + 2 + + + 3 + + + 4 + + +    1 + + + 2 + + + 3 + + + 4 + + +

G|----------------------------------|----------------------------------|
D|----------------------------------|----------------------------------|
A|----------------------------------|-3---3---3---3---3---3---3---3----|
E|-0---0---0---0---0---0---0---0----|----------------------------------|
   1 + + + 2 + + + 3 + + + 4 + + +    1 + + + 2 + + + 3 + + + 4 + + +

G|----------------------------------|----------------------------------|
D|----------------------------------|----------------------------------|
A|----------------------------------|----------------------------------|
E|-3---3---3---3---3---3---3---3----|-2---2---2---2---2---2---2---2----|
   1 + + + 2 + + + 3 + + + 4 + + +    1 + + + 2 + + + 3 + + + 4 + + +

G|----------------------------------|----------------------------------|
D|----------------------------------|----------------------------------|
A|----------------------------------|-3---3---3---3---3---3---3---3----|
E|-0---0---0---0---0---0---0---0----|----------------------------------|
   1 + + + 2 + + + 3 + + + 4 + + +    1 + + + 2 + + + 3 + + + 4 + + +

G|----------------------------------|----------------------------------|
D|----------------------------------|----------------------------------|
A|----------------------------------|----------------------------------|
E|-3---3---3---3---3---3---3---3----|-3---3---3---3---3---3---3---3----|
   1 + + + 2 + + + 3 + + + 4 + + +    1 + + + 2 + + + 3 + + + 4 + + +

VERSE

G|----------------------------------|----------------------------------|
D|----------------------------------|----------------------------------|
A|----------------------------------|----------------------------------|
E|-3---3---3---3---3---3---3---3----|-3---3---3---3---3---3---3---3----|
   1 + + + 2 + + + 3 + + + 4 + + +    1 + + + 2 + + + 3 + + + 4 + + +

G|----------------------------------|----------------------------------|
D|----------------------------------|----------------------------------|
A|----------------------------------|----------------------------------|
E|-3---3---3---3---3---3---3---3----|-3---3---3---3---3---3---3---3----|
   1 + + + 2 + + + 3 + + + 4 + + +    1 + + + 2 + + + 3 + + + 4 + + +

G|----------------------------------|----------------------------------|
D|----------------------------------|----------------------------------|
A|----------------------------------|-3---3---3---3---3---3---3---3----|
E|-0---0---0---0---0---0---0---0----|----------------------------------|
   1 + + + 2 + + + 3 + + + 4 + + +    1 + + + 2 + + + 3 + + + 4 + + +

G|----------------------------------|----------------------------------|
D|----------------------------------|----------------------------------|
A|----------------------------------|----------------------------------|
E|-3---3---3---3---3---3---3---3----|-3---3---3---3---3---3---3---3----|
   1 + + + 2 + + + 3 + + + 4 + + +    1 + + + 2 + + + 3 + + + 4 + + +

G|----------------------------------|----------------------------------|
D|----------------------------------|----------------------------------|
A|----------------------------------|----------------------------------|
E|-3---3---3---3---3---3---3---3----|-3---3---3---3---3---3---3---3----|
   1 + + + 2 + + + 3 + + + 4 + + +    1 + + + 2 + + + 3 + + + 4 + + +

G|----------------------------------|----------------------------------|
D|----------------------------------|----------------------------------|
A|----------------------------------|----------------------------------|
E|-3---3---3---3---3---3---3---3----|-3---3---3---3---3---3---3---3----|
   1 + + + 2 + + + 3 + + + 4 + + +    1 + + + 2 + + + 3 + + + 4 + + +

G|----------------------------------|----------------------------------|
D|----------------------------------|----------------------------------|
A|----------------------------------|-3---3---3---3---3---3---3---3----|
E|-0---0---0---0---0---0---0---0----|----------------------------------|
   1 + + + 2 + + + 3 + + + 4 + + +    1 + + + 2 + + + 3 + + + 4 + + +

G|----------------------------------|----------------------------------|
D|----------------------------------|----------------------------------|
A|----------------------------------|----------------------------------|
E|-3---3---3---3---3---3---3---3----|-3---3---3---3---3---3---3---3----|
   1 + + + 2 + + + 3 + + + 4 + + +    1 + + + 2 + + + 3 + + + 4 + + +

CHORUS

G|----------------------------------|----------------------------------|
D|----------------------------------|----------------------------------|
A|----------------------------------|-3---3---3---3---3---3---3---3----|
E|-0---0---0---0---0---0---0---0----|----------------------------------|
   1 + + + 2 + + + 3 + + + 4 + + +    1 + + + 2 + + + 3 + + + 4 + + +

G|----------------------------------|----------------------------------|
D|----------------------------------|----------------------------------|
A|----------------------------------|-5---5---5---5---5---5---5---5----|
E|-3---3---3---3---3---3---3---3----|----------------------------------|
   1 + + + 2 + + + 3 + + + 4 + + +    1 + + + 2 + + + 3 + + + 4 + + +

G|----------------------------------|----------------------------------|
D|----------------------------------|----------------------------------|
A|----------------------------------|-3---3---3---3---3---3---3---3----|
E|-0---0---0---0---0---0---0---0----|----------------------------------|
   1 + + + 2 + + + 3 + + + 4 + + +    1 + + + 2 + + + 3 + + + 4 + + +

G|----------------------------------|----------------------------------|
D|----------------------------------|----------------------------------|
A|-5---5---5---5---5---5---5---5----|-5---5---5---5---5---5---5---5----|
E|----------------------------------|----------------------------------|
   1 + + + 2 + + + 3 + + + 4 + + +    1 + + + 2 + + + 3 + + + 4 + + +

G|----------------------------------|----------------------------------|
D|----------------------------------|----------------------------------|
A|-5---5---5---5---5---5---5---5----|-5---5---5---5---5---5---5---5----|
E|----------------------------------|----------------------------------|
   1 + + + 2 + + + 3 + + + 4 + + +    1 + + + 2 + + + 3 + + + 4 + + +

INTERLUDE

G|----------------------------------|----------------------------------|
D|----------------------------------|----------------------------------|
A|----------------------------------|----------------------------------|
E|-3---3---3---3---3---3---3---3----|-3---3---3---3---3---3---3---3----|
   1 + + + 2 + + + 3 + + + 4 + + +    1 + + + 2 + + + 3 + + + 4 + + +

G|----------------------------------|----------------------------------|
D|----------------------------------|----------------------------------|
A|----------------------------------|-3---3---3---3---3---3---3---3----|
E|-0---0---0---0---0---0---0---0----|----------------------------------|
   1 + + + 2 + + + 3 + + + 4 + + +    1 + + + 2 + + + 3 + + + 4 + + +

G|----------------------------------|----------------------------------|
D|----------------------------------|----------------------------------|
A|----------------------------------|----------------------------------|
E|-3---3---3---3---3---3---3---3----|-2---2---2---2---2---2---2---2----|
   1 + + + 2 + + + 3 + + + 4 + + +    1 + + + 2 + + + 3 + + + 4 + + +

G|----------------------------------|----------------------------------|
D|----------------------------------|----------------------------------|
A|----------------------------------|-3---3---3---3---3---3---3---3----|
E|-0---0---0---0---0---0---0---0----|----------------------------------|
   1 + + + 2 + + + 3 + + + 4 + + +    1 + + + 2 + + + 3 + + + 4 + + +

G|----------------------------------|----------------------------------|
D|----------------------------------|----------------------------------|
A|----------------------------------|----------------------------------|
E|-3---3---3---3---3---3---3---3----|-3---3---3---3---3---3---3---3----|
   1 + + + 2 + + + 3 + + + 4 + + +    1 + + + 2 + + + 3 + + + 4 + + +

VERSE

G|----------------------------------|----------------------------------|
D|----------------------------------|----------------------------------|
A|----------------------------------|----------------------------------|
E|-3---3---3---3---3---3---3---3----|-3---3---3---3---3---3---3---3----|
   1 + + + 2 + + + 3 + + + 4 + + +    1 + + + 2 + + + 3 + + + 4 + + +

G|----------------------------------|----------------------------------|
D|----------------------------------|----------------------------------|
A|----------------------------------|----------------------------------|
E|-3---3---3---3---3---3---3---3----|-3---3---3---3---3---3---3---3----|
   1 + + + 2 + + + 3 + + + 4 + + +    1 + + + 2 + + + 3 + + + 4 + + +

G|----------------------------------|----------------------------------|
D|----------------------------------|----------------------------------|
A|----------------------------------|-3---3---3---3---3---3---3---3----|
E|-0---0---0---0---0---0---0---0----|----------------------------------|
   1 + + + 2 + + + 3 + + + 4 + + +    1 + + + 2 + + + 3 + + + 4 + + +

G|----------------------------------|----------------------------------|
D|----------------------------------|----------------------------------|
A|----------------------------------|----------------------------------|
E|-3---3---3---3---3---3---3---3----|-3---3---3---3---3---3---3---3----|
   1 + + + 2 + + + 3 + + + 4 + + +    1 + + + 2 + + + 3 + + + 4 + + +

G|----------------------------------|----------------------------------|
D|----------------------------------|----------------------------------|
A|----------------------------------|----------------------------------|
E|-3---3---3---3---3---3---3---3----|-3---3---3---3---3---3---3---3----|
   1 + + + 2 + + + 3 + + + 4 + + +    1 + + + 2 + + + 3 + + + 4 + + +

G|----------------------------------|----------------------------------|
D|----------------------------------|----------------------------------|
A|----------------------------------|----------------------------------|
E|-3---3---3---3---3---3---3---3----|-3---3---3---3---3---3---3---3----|
   1 + + + 2 + + + 3 + + + 4 + + +    1 + + + 2 + + + 3 + + + 4 + + +

G|----------------------------------|----------------------------------|
D|----------------------------------|----------------------------------|
A|----------------------------------|-3---3---3---3---3---3---3---3----|
E|-0---0---0---0---0---0---0---0----|----------------------------------|
   1 + + + 2 + + + 3 + + + 4 + + +    1 + + + 2 + + + 3 + + + 4 + + +

G|----------------------------------|----------------------------------|
D|----------------------------------|----------------------------------|
A|----------------------------------|----------------------------------|
E|-3---3---3---3---3---3---3---3----|-3---3---3---3---3---3---3---3----|
   1 + + + 2 + + + 3 + + + 4 + + +    1 + + + 2 + + + 3 + + + 4 + + +

CHORUS

G|----------------------------------|----------------------------------|
D|----------------------------------|----------------------------------|
A|----------------------------------|-3---3---3---3---3---3---3---3----|
E|-0---0---0---0---0---0---0---0----|----------------------------------|
   1 + + + 2 + + + 3 + + + 4 + + +    1 + + + 2 + + + 3 + + + 4 + + +

G|----------------------------------|----------------------------------|
D|----------------------------------|----------------------------------|
A|----------------------------------|-5---5---5---5---5---5---5---5----|
E|-3---3---3---3---3---3---3---3----|----------------------------------|
   1 + + + 2 + + + 3 + + + 4 + + +    1 + + + 2 + + + 3 + + + 4 + + +

G|----------------------------------|----------------------------------|
D|----------------------------------|----------------------------------|
A|----------------------------------|-3---3---3---3---3---3---3---3----|
E|-0---0---0---0---0---0---0---0----|----------------------------------|
   1 + + + 2 + + + 3 + + + 4 + + +    1 + + + 2 + + + 3 + + + 4 + + +

G|----------------------------------|----------------------------------|
D|----------------------------------|----------------------------------|
A|-5---5---5---5---5---5---5---5----|-5---5---5---5---5---5---5---5----|
E|----------------------------------|----------------------------------|
   1 + + + 2 + + + 3 + + + 4 + + +    1 + + + 2 + + + 3 + + + 4 + + +

G|----------------------------------|----------------------------------|
D|----------------------------------|----------------------------------|
A|-5---5---5---5---5---5---5---5----|-5---5---5---5---5---5---5---5----|
E|----------------------------------|----------------------------------|
   1 + + + 2 + + + 3 + + + 4 + + +    1 + + + 2 + + + 3 + + + 4 + + +

INTERLUDE

G|----------------------------------|----------------------------------|
D|----------------------------------|----------------------------------|
A|----------------------------------|----------------------------------|
E|-3---3---3---3---3---3---3---3----|-3---3---3---3---3---3---3---3----|
   1 + + + 2 + + + 3 + + + 4 + + +    1 + + + 2 + + + 3 + + + 4 + + +

G|----------------------------------|----------------------------------|
D|----------------------------------|----------------------------------|
A|----------------------------------|-3---3---3---3---3---3---3---3----|
E|-0---0---0---0---0---0---0---0----|----------------------------------|
   1 + + + 2 + + + 3 + + + 4 + + +    1 + + + 2 + + + 3 + + + 4 + + +

G|----------------------------------|----------------------------------|
D|----------------------------------|----------------------------------|
A|----------------------------------|----------------------------------|
E|-3---3---3---3---3---3---3---3----|-2---2---2---2---2---2---2---2----|
   1 + + + 2 + + + 3 + + + 4 + + +    1 + + + 2 + + + 3 + + + 4 + + +

G|----------------------------------|----------------------------------|
D|----------------------------------|----------------------------------|
A|----------------------------------|-3---3---3---3---3---3---3---3----|
E|-0---0---0---0---0---0---0---0----|----------------------------------|
   1 + + + 2 + + + 3 + + + 4 + + +    1 + + + 2 + + + 3 + + + 4 + + +

BRIDGE/CHORUS/OUTRO

G|----------------------------------|----------------------------------|
D|----------------------------------|----------------------------------|
A|----------------------------------|-3---3---3---3---3---3---3---3----|
E|-0---0---0---0---0---0---0---0----|----------------------------------|
   1 + + + 2 + + + 3 + + + 4 + + +    1 + + + 2 + + + 3 + + + 4 + + +

G|----------------------------------|----------------------------------|
D|----------------------------------|----------------------------------|
A|----------------------------------|-5---5---5---5---5---5---5---5----|
E|-3---3---3---3---3---3---3---3----|----------------------------------|
   1 + + + 2 + + + 3 + + + 4 + + +    1 + + + 2 + + + 3 + + + 4 + + +
G|----------------------------------|----------------------------------|
D|----------------------------------|----------------------------------|
A|----------------------------------|-3---3---3---3---3---3---3---3----|
E|-0---0---0---0---0---0---0---0----|----------------------------------|
   1 + + + 2 + + + 3 + + + 4 + + +    1 + + + 2 + + + 3 + + + 4 + + +

G|----------------------------------|----------------------------------|
D|----------------------------------|----------------------------------|
A|----------------------------------|-5---5---5---5---5---5---5---5----|
E|-3---3---3---3---3---3---3---3----|----------------------------------|
   1 + + + 2 + + + 3 + + + 4 + + +    1 + + + 2 + + + 3 + + + 4 + + +

G|----------------------------------|----------------------------------|
D|----------------------------------|----------------------------------|
A|----------------------------------|-3---3---3---3---3---3---3---3----|
E|-0---0---0---0---0---0---0---0----|----------------------------------|
   1 + + + 2 + + + 3 + + + 4 + + +    1 + + + 2 + + + 3 + + + 4 + + +

G|----------------------------------|----------------------------------|
D|----------------------------------|----------------------------------|
A|----------------------------------|-5---5---5---5---5---5---5---5----|
E|-3---3---3---3---3---3---3---3----|----------------------------------|
   1 + + + 2 + + + 3 + + + 4 + + +    1 + + + 2 + + + 3 + + + 4 + + +

G|----------------------------------|----------------------------------|
D|----------------------------------|----------------------------------|
A|----------------------------------|-3---3---3---3---3---3---3---3----|
E|-0---0---0---0---0---0---0---0----|----------------------------------|
   1 + + + 2 + + + 3 + + + 4 + + +    1 + + + 2 + + + 3 + + + 4 + + +

G|----------------------------------|----------------------------------|
D|----------------------------------|----------------------------------|
A|-5---5---5---5---5---5---5---5----|-5---5---5---5---5---5---5---5----|
E|----------------------------------|----------------------------------|
   1 + + + 2 + + + 3 + + + 4 + + +    1 + + + 2 + + + 3 + + + 4 + + +

G|----------------------------------|----------------------------------|
D|----------------------------------|----------------------------------|
A|-5---5---5---5---5---5---5---5----|-5---5---5---5---5---5---5---5----|
E|----------------------------------|----------------------------------|
   1 + + + 2 + + + 3 + + + 4 + + +    1 + + + 2 + + + 3 + + + 4 + + +

G|----------------------------------|
D|----------------------------------|
A|----------------------------------|
E|-3~~~-----------------------------|
   1 + + + 2 + + + 3 + + + 4 + + +    
Suggest correction
Creating personal tab
Creating personal tab
You can edit any tab online and save it as your Personal.

You can edit, replace or remove any tab part or add personal notes – all changes will be seen only by you.

Personal tabs can be accessed anytime from any device, even offline.
Learn more »
Give kudos to tab author, rate the tab!
1 2 3 4 5
comments
print report bad tab
guest
You may want to rate the tab now too:
select rating
Wanna post a correction for this tab? Suggest correction