Oops, an error
Loading. Please wait.

In Vein Bass Tab

version 1
version 1

Whole song

Interactive

5,428 views 6 this week
5 commentsread comments
1 2 3 4 5
excellent!
x 8
add to favorites
launch autoscroll
font size
0
reset
guitar tuner
Autoscroll
slow
fast
+/-
esc
set tempo
stop
Help us to improve Ultimate-Guitar.com Take our survey!
×
Author
In Vein
Alkaline Trio
Bass tab

Intro

G|-----------------|-----------------|-----------------|-----------------|
D|-----------------|-----------------|-3---------------|-----------------|
A|---------88888885|-----5---5---5---|-----5---00000005|-----5---5---5---|
E|-----------------|-----------------|-----------------|-----------------|
   1 + 2 + 3 + 4 +   1 + 2 + 3 + 4 +   1 + 2 + 3 + 4 +   1 + 2 + 3 + 4 +


G|-----------------|
D|-7---------------|
A|-----5---88888885|
E|-----------------|
   1 + 2 + 3 + 4 +


Verse -	My point of reference makes me afraid to begin convincing,
	But you might as well just change your name.
	'Cause I only recognize this shadow,
	Kind of like a superhero with nobody's best interests in mind.


G|-----------------|-----------------|-----------------|-----------------|
D|-----------------|-3---3---3---3-0-|---------3-------|-----2---3---2\--|
A|-----5---5---5-0-|-----------------|-1---1-------1---|-0---0---0---0---|
E|-----------------|-----------------|-----------------|-----------------|
   1 + 2 + 3 + 4 +   1 + 2 + 3 + 4 +   1 + 2 + 3 + 4 +   1 + 2 + 3 + 4 +

G|-----------------|-----------------|-----------------|-----------------|
D|-----------------|-3---3---3h5-3-2-|---------3h5-3-2-|-----------------|
A|-5---5---7-/85-7-|-----------------|-1---1-----------|-0-0-0-0-1-1-1-1-|
E|-----------------|-----------------|-----------------|-----------------|
   1 + 2 + 3 + 4 +   1 + 2 + 3 + 4 +   1 + 2 + 3 + 4 +   1 + 2 + 3 + 4 +


Interlude


G|-----------------|-----------------|-----------------|-----------------|
D|-----7\----------|-----------------|-----------------|-7-7-7-7---------|
A|-----5\----------|-----8-----------|-0-0-0-0-0-0-0-0-|---------88888885|
E|-------------5---|-----6-------1---|-----------------|-----------------|
   1 + 2 + 3 + 4 +   1 + 2 + 3 + 4 +   1 + 2 + 3 + 4 +   1 + 2 + 3 + 4 +


Verse - Now there's blood in the waters, that I squeezed from this stone, 	here, And we 
into our cheap wine.
	And I swallowed every drop, yes, I could feel my stomach rotting,
	You were so supportive as I drank through the pain.


G|-----------------|-----------------|-----------------|-----------------|
D|-----------------|-3---3---3---3-0-|---------3-------|-----2---3---2\--|
A|-----5---5---5-0-|-----------------|-1---1-------1---|-0---0---0---0---|
E|-----------------|-----------------|-----------------|-----------------|
   1 + 2 + 3 + 4 +   1 + 2 + 3 + 4 +   1 + 2 + 3 + 4 +   1 + 2 + 3 + 4 +


G|-----------------|-----------------|-----------------|-----------------|
D|-----------------|-3---3---3h5-3-2-|---------3h5-3-2-|-----------------|
A|-5---5---7-/85-7-|-----------------|-1---1-----------|-0-0-0-0-1-1-1-1-|
E|-----------------|-----------------|-----------------|-----------------|
   1 + 2 + 3 + 4 +   1 + 2 + 3 + 4 +   1 + 2 + 3 + 4 +   1 + 2 + 3 + 4 +


Chorus - 	You recognize this shape, it's the back of your hand.
		You placed it on my face here again, and again, yeah.
		And I don't wanna be the one who takes this place in vein.

G|-----------------|-----------------|-----------------|-----------------|
D|-----------------|-----------------|-----3-------3---|-----------------|
A|-5-5-5-5-1-1-1-1-|---------0-0-0-0-|-5-5---5-1-1---1-|-----1---0-0-0-0-|
E|-----------------|-1-1-1-1---------|-----------------|-3-3---3---------|
   1 + 2 + 3 + 4 +   1 + 2 + 3 + 4 +   1 + 2 + 3 + 4 +   1 + 2 + 3 + 4 +

G|-----------------|-----------------|-----------------|-----------------|
D|-----------------|-----------------|-----3-------3---|-----------------|
A|-5-5-5-5-1-1-1-1-|---------0-0-0-0-|-5-5---5-1-1---1-|-----1---0-0-0-0-|
E|-----------------|-1-1-1-1---------|-----------------|-3-3---3---------|
   1 + 2 + 3 + 4 +   1 + 2 + 3 + 4 +   1 + 2 + 3 + 4 +   1 + 2 + 3 + 4 +

G|-----------------|-----------------|-----------------|-----------------|
D|-----------------|-----------------|-2-2-3-3-2-2-3-3-|-7-7-7-7---------|
A|-5-5-5-5-3-3-3-3-|-1-1-1-1---------|-0-0-0-0-0-0-0-0-|-0-0-0-0-88888885|
E|-----------------|---------1-1-1-1-|-----------------|-----------------|
   1 + 2 + 3 + 4 +   1 + 2 + 3 + 4 +   1 + 2 + 3 + 4 +   1 + 2 + 3 + 4 +

Interlude

G|-----------------|-----------------|-----------------|-----------------|
D|-----------------|-3---------------|-----------------|-7---------------|
A|-----5---5---5---|-----5---00000005|-----5---5---5---|-----5---88888885|
E|-----------------|-----------------|-----------------|-----------------|
   1 + 2 + 3 + 4 +   1 + 2 + 3 + 4 +   1 + 2 + 3 + 4 +   1 + 2 + 3 + 4 +

Verse - Dove off the deep side platform, jack-knifed and bone dry,  hit floor
	One broken ankle saved my name.
	And this eraser burn, I dig in deep at every turn.
	It keeps getting darker and the fear stays the same.

G|-----------------|-----------------|-----------------|-----------------|
D|-----------------|-3-3-3-3-3-3-3-0-|---------3-3-----|-----2-2-3-3-2-0-|
A|-5-5-5-5-5-5-5-0-|-----------------|-1-1-1-1-----1-1-|-0-0-0-0-0-0-----|
E|-----------------|-----------------|-----------------|-----------------|
   1 + 2 + 3 + 4 +   1 + 2 + 3 + 4 +   1 + 2 + 3 + 4 +   1 + 2 + 3 + 4 +

G|-----------------|-----------------|-----------------|-----------------|
D|-----------------|-3-3-3-3-3h5-3-2-|---------3h5-3-2-|-----------------|
A|-5-5-5-5-7-/85-7-|-----------------|-1-1-1-1---------|-0-0-0-0-1-1-1-1-|
E|-----------------|-----------------|-----------------|-----------------|
   1 + 2 + 3 + 4 +   1 + 2 + 3 + 4 +   1 + 2 + 3 + 4 +   1 + 2 + 3 + 4 +

Chorus - 	You recognize this shape, it's the back of your hand.
		You placed it on my face here again, and again, yeah.
		And I don't wanna be the one who takes this place in vein.
		I don't wanna be the one who takes,
		I don't wanna be the one who takes this place in vein.

G|-----------------|-----------------|-----------------|-----------------|
D|-----------------|-----------------|-----3-------3---|-----------------|
A|-5-5-5-5-1-1-1-1-|---------0-0-0-0-|-5-5---5-1-1---1-|-----1---0-0-0-0-|
E|-----------------|-1-1-1-1---------|-----------------|-3-3---3---------|
   1 + 2 + 3 + 4 +   1 + 2 + 3 + 4 +   1 + 2 + 3 + 4 +   1 + 2 + 3 + 4 +

G|-----------------|-----------------|-----------------|-----------------|
D|-----------------|-----------------|-----3-------3---|-----------------|
A|-5-5-5-5-1-1-1-1-|---------0-0-0-0-|-5-5---5-1-1---1-|-----1---0-0-0-0-|
E|-----------------|-1-1-1-1---------|-----------------|-3-3---3---------|
   1 + 2 + 3 + 4 +   1 + 2 + 3 + 4 +   1 + 2 + 3 + 4 +   1 + 2 + 3 + 4 +

G|-----------------|-----------------|-----------------|-----------------|
D|-----------------|-----------------|-----------------|-----------------|
A|-5-5-5-0-3-3-3-0-|-1-1-1-0---------|-5-5-5-0-3-3-3-0-|-1-1-1-0-8-8-7-7-|
E|-----------------|---------1-1-1-0-|-----------------|-----------------|
   1 + 2 + 3 + 4 +   1 + 2 + 3 + 4 +   1 + 2 + 3 + 4 +   1 + 2 + 3 + 4 +

G|-----------------|-----------------|-----------------|-----------------|
D|-----------------|-----------------|-2-2-3-3-2-2-3-3-|-7-7-7-7-7-7-7-7-|
A|-5-5-5-5-3-3-3-3-|-1-1-1-1---------|-0-0-0-0-0-0-0-0-|-0-0-0-0-0-0-0-0-|
E|-----------------|---------1-1-1-1-|-----------------|-----------------|
   1 + 2 + 3 + 4 +   1 + 2 + 3 + 4 +   1 + 2 + 3 + 4 +   1 + 2 + 3 + 4 +

Interlude

G|-----------------|-----------------|-----------------|-----------------|
D|-----------------|-------2h3--2----|-----------------|-----------------|
A|-1--1------------|---------------3-|-5--5------------|---------0---3---|
E|-----------------|-----------------|-----------------|-----------------|
   1 + 2 + 3 + 4 +   1 + 2 + 3 + 4 +   1 + 2 + 3 + 4 +   1 + 2 + 3 + 4 +

G|-----------------|-3---------------|-----------------|-7---------------|
D|---------3-------|-------2h3--2----|-----------7-----|-----------------|
A|-1--0--1---------|---------------3-|-5--3----5-------|---------0---3---|
E|-----------------|-----------------|-----------------|-----------------|
   1 + 2 + 3 + 4 +   1 + 2 + 3 + 4 +   1 + 2 + 3 + 4 +   1 + 2 + 3 + 4 +

G|-----------------|-3---------------|-----------------|-7---------------|
D|---------3-------|-------2h3--2----|-----------7-----|-----------------|
A|-1--0--1---------|---------------3-|-5--3----5-------|---------0---3---|
E|-----------------|-----------------|-----------------|-----------------|
   1 + 2 + 3 + 4 +   1 + 2 + 3 + 4 +   1 + 2 + 3 + 4 +   1 + 2 + 3 + 4 +


G|-----------------|-----------------|-----------------|-----------------|
D|-----------------|-----------------|-----------------|-----------------|
A|-1-1-1-1-1-1-1-1-|-1-1-1-1-1-1-1-1-|-5-5-5-5-5-5-5-5-|-3-3-3-3-3-3-3-3-|
E|-----------------|-----------------|-----------------|-----------------|
   1 + 2 + 3 + 4 +   1 + 2 + 3 + 4 +   1 + 2 + 3 + 4 +   1 + 2 + 3 + 4 +


G|-----------------|-----------------|-----------------|-----------------|
D|-----------------|-----------------|-----------------|-----------------|
A|-1-1-1-1-1-1-1-1-|-1-1-1-1/8-8-7-7-|-5-5-5-5-5-5-5-5-|-3-3-3-3-3-3-3-3-|
E|-----------------|-----------------|-----------------|-----------------|
   1 + 2 + 3 + 4 +   1 + 2 + 3 + 4 +   1 + 2 + 3 + 4 +   1 + 2 + 3 + 4 +


Bridge - 	I don't wanna take, I don't wanna take this place, no.
		I don't want to take, I don't wanna take this place, no.
		No-oh, no-oh. I don't wanna take this place, no.
		No-oh, no-oh. I don't wanna take this place, no.

G|-----------------|-----------------|-----------------|-----------------|
D|-3---------------|-----------------|-7---------------|-5---------------|
A|-1---------------|-----------------|-5---------------|-3---------------|
E|-----------------|-----------------|-----------------|-----------------|
   1 + 2 + 3 + 4 +   1 + 2 + 3 + 4 +   1 + 2 + 3 + 4 +   1 + 2 + 3 + 4 +

G|-----------------|-----------------|-----------------|-----------------|
D|-3---------------|-----------------|-7---------------|-5---------------|
A|-1---------------|-----------------|-5---------------|-3---------------|
E|-----------------|-----------------|-----------------|-----------------|
   1 + 2 + 3 + 4 +   1 + 2 + 3 + 4 +   1 + 2 + 3 + 4 +   1 + 2 + 3 + 4 +

G|-----------------|-----------------|-----------------|-----------------|
D|-----------------|-----------------|-----------------|-----------------|
A|-1-1-1-1-1-1-1-1-|-1-1-1-1-1-1-1-1-|-5-5-5-5-5-5-5-5-|-3-3-3-3-3-3-3-3-|
E|-----------------|-----------------|-----------------|-----------------|
   1 + 2 + 3 + 4 +   1 + 2 + 3 + 4 +   1 + 2 + 3 + 4 +   1 + 2 + 3 + 4 +

G|-----------------|-----------------|-----------------|-----------------|
D|-----------------|-----------------|-----------------|-----------------|
A|-1-1-1-1-1-1-1-1-|-1-1-1-1-1-1-1-1-|-8-8-8-8-8-8-8-8-|-3-3-3-3-3-3-3-3-|
E|-----------------|-----------------|-----------------|-----------------|
   1 + 2 + 3 + 4 +   1 + 2 + 3 + 4 +   1 + 2 + 3 + 4 +   1 + 2 + 3 + 4 +

G|-----------------|-----------------|---------|
D|-----------------|-----------------|---------|
A|-1-1-1-1-1-1-1-1-|-3---------------|---------|
E|-----------------|---------5-------|---------|
   1 + 2 + 3 + 4 +   1 + 2 + 3 + 4 +   1 + 2 +


Chorus - 	You recognize this shape, it's the back of your hand.
		You placed it on my face here again, and again, yeah.
		And I don't wanna be the one who takes this place in vein.
		I don't wanna be the one who takes,
		I don't wanna be the one who takes this place in vein.

G|-----------------|-----------------|-----------------|-----------------|
D|-----------------|-----------------|-----3-------3---|-----------------|
A|-5-5-5-5-1-1-1-1-|---------0-0-0-0-|-5-5---5-1-1---1-|-----1---0-0-0-0-|
E|-----------------|-1-1-1-1---------|-----------------|-3-3---3---------|
   1 + 2 + 3 + 4 +   1 + 2 + 3 + 4 +   1 + 2 + 3 + 4 +   1 + 2 + 3 + 4 +

G|-----------------|-----------------|-----------------|-----------------|
D|-----------------|-----------------|-----3-------3---|-----------------|
A|-5-5-5-5-1-1-1-1-|---------0-0-0-0-|-5-5---5-1-1---1-|-----1---0-0-0-0-|
E|-----------------|-1-1-1-1---------|-----------------|-3-3---3---------|
   1 + 2 + 3 + 4 +   1 + 2 + 3 + 4 +   1 + 2 + 3 + 4 +   1 + 2 + 3 + 4 +

G|-----------------|-----------------|-----------------|-----------------|
D|-----------------|-----------------|-----------------|-----------------|
A|-5-5-5-0-3-3-3-0-|-1-1-1-0---------|-5-5-5-0-3-3-3-0-|-1-1-1-0-8-8-7-7-|
E|-----------------|---------1-1-1-0-|-----------------|-----------------|
   1 + 2 + 3 + 4 +   1 + 2 + 3 + 4 +   1 + 2 + 3 + 4 +   1 + 2 + 3 + 4 +

G|-----------------|-----------------|-----------------|-----------------|
D|-----------------|-----------------|-2-2-3-3-2-2-3-3-|-7-7-7-7---------|
A|-5-5-5-0-3-3-3-0-|-1-1-1-0---------|-0-0-0-0-0-0-0-0-|-0-0-0-0-88888885|
E|-----------------|---------1-1-1-0-|-----------------|-----------------|
   1 + 2 + 3 + 4 +   1 + 2 + 3 + 4 +   1 + 2 + 3 + 4 +   1 + 2 + 3 + 4 +
Suggest correction
What's this?
You can suggest a correction to this tab. Community and Mods will review your correction and vote to approve or reject it.
comments
print report bad tab
5 comments total. Showing first comments.
0 reply
Jay Awesome 143 wrote on July 4 2008, 07:05 pm

I effin LOVE your timing thing. Makes it so easy to understand.

0 reply
chromaticvision 4,961 wrote on July 4 2008, 11:51 pm

Thanks, I do it on all my tabs.

0 reply
afi931 96 wrote on July 7 2008, 01:24 pm

The whole timing thing makes the tab perfect! I don't think you missed one note. Props, Bro.

guest
You may want to rate the tab now too:
select rating
Please do not post tabs as comments. Select "correction" instead!