Oops, an error
Loading. Please wait.

In Vein Tab

version 2
version 2

Whole song

Interactive

497 views 1 this week
1 commentread comment
1 2 3 4 5
please rate
add to favorites
launch autoscroll
font size
0
reset
how to read this tab
guitar tuner
Autoscroll
slow
fast
+/-
esc
set tempo
stop
Help us to improve Ultimate-Guitar.com Take our survey!
×
Alk3
In Vein

intro
|---6666666666-5-5-5-5-5-5--|--6666666666-|
|:--6666666666-6-6-6-6-6-6-:|--6666666666-|
|---7777777777-7-7-7-7-7-7--|--7777777777-|
|---------------------------|-------------|
|:-------------------------:|-------------|
|---------------------------|-------------|



verse
--5-5-5-5--5-5-5-5--6-6-6-6--5-5-5-5--|
--6-6-6-6--6-6-6-6--6-6-6-6--5-5-5-5--|
--7-7-7-7--5-5-5-5--3-3-3-3--6-6-6-6--|
-----------------------------7-7-7-7--|
--------------------------------------|
--------------------------------------|



verse
--5-5-5-5--5-5-5-5--6-6-6-6--5-5-5-5-6-6-6-6----------------------------|
--6-6-6-6--6-6-6-6--6-6-6-6--5-5-5-5-6-6-6-6----------------------------|
--7-7-7-7--5-5-5-5--3-3-3-3--2-2-2-2-3-3-3-3--7--x---6--x---3--x--2--x--|
-----------------------------2-2-2-2-3-3-3-3--7--x---7--x---3--x--3--x--|
-----------------------------0-0-0-0----------5--x---7--x---1--x--3--x--|
----------------------------------------------5--x---5--x---1--x--1--x--|



verse
----------------6666666666-|
----------------6666666666-|
-22-33-22-33-/6-7777777777-|
-22-22-22-22--5------------|
-00-00-00-00--0------------|
---------------------------|



verse
--5-5-5-5--5-5-5-5--6-6-6-6--5-5-5-5--|
--6-6-6-6--6-6-6-6--6-6-6-6--5-5-5-5--|
--7-7-7-7--5-5-5-5--3-3-3-3--6-6-6-6--|
-----------------------------7-7-7-7--|
--------------------------------------|
--------------------------------------|



verse
--5-5-5-5--5-5-5-5--6-6-6-6--5-5-5-5-6-6-6-6--|
--6-6-6-6--6-6-6-6--6-6-6-6--5-5-5-5-6-6-6-6--|
--7-7-7-7--5-5-5-5--3-3-3-3--2-2-2-2-3-3-3-3--|
-----------------------------2-2-2-2-3-3-3-3--|
-----------------------------0-0-0-0----------|
----------------------------------------------|



chorus
|---------------------------------------------------------|
|:-------------------------------------------------------:|
|---7777-3333--10-10-10-x--9/10\9---7777-3333-------------|
|---7777-3333---x--x--x-x--x--x-x---7777-3333-5555-7777---|
|:--5555-1111---8--8--8-x--7/-8\7---5555-1111-5555-7777--:|
|---5555-1111-----------------------5555-1111-3333-5555---|



chorus
------------------------------------------------|
------------------------------------------------|
---777-x-555-x--333-x---------22-33-22-33-6-----|
---777-x-555-x--333-x--333-x--22-22-22-22-5-----|
---555-x-333-x--111-x--333-x--00-00-00-00-0-----|
---555-x-333-x--111-x--111-0--------------------|



|---6666666666-5-5-5-5-5-5--|----6666666666--|
|:--6666666666-6-6-6-6-6-6-:|----6666666666--|
|---7777777777-7-7-7-7-7-7--|----7777777777--|
|---------------------------|----------------|
|:-------------------------:|----------------|
|---------------------------|----------------|



verse
--5-5-5-5--5-5-5-5--6-6-6-6--5-5-5-5--|
--6-6-6-6--6-6-6-6--6-6-6-6--5-5-5-5--|
--7-7-7-7--5-5-5-5--3-3-3-3--6-6-6-6--|
-----------------------------7-7-7-7--|
--------------------------------------|
--------------------------------------|



verse
|-5-5-5-5--5-5-5-5--6-6-6-6--5-5-5-5-6-6-6-6--|
|-6-6-6-6--6-6-6-6--6-6-6-6--5-5-5-5-6-6-6-6--|
|-7-7-7-7--5-5-5-5--3-3-3-3--2-2-2-2-3-3-3-3--|
|----------------------------2-2-2-2-3-3-3-3--|
|----------------------------0-0-0-0----------|
|---------------------------------------------|
|                                             |
|                                             |
|                                             |
|verse                                        |
|---------------------------------------------|
|---------------------------------------------|
|---------------------------------------------|
|--7/12---12\10---10/12----12\11--------------|
|--x--x----x--x----x/-x-----x--x--------------|
|--5/10---10\-8----8/10----10\-9--------------|



chorus
|---------------------------------------------------------|
|:-------------------------------------------------------:|
|---7777-3333--10-10-10-x--9/10\9---7777-3333-------------|
|---7777-3333---x--x--x-x--x--x-x---7777-3333-5555-7777---|
|:--5555-1111---8--8--8-x--7/-8\7---5555-1111-5555-7777--:|
|---5555-1111-----------------------5555-1111-3333-5555---|



chorus
------------------------------|
------------------------------|
---777-x-555-x--333-x---------|
---777-x-555-x--333-x--333-x--|
---555-x-333-x--111-x--333-x--|
---555-x-333-x--111-x--111-0--|



chorus
-------------------------------------|
-------------------------------------|
---777-x-555-x--333-x--10-10-10-10---|
---777-x-555-x--333-x--10-10-10-10---|
---555-x-333-x--111-x---8--8--8--8---|
---555-x-333-x--111-x---8--8--8--8---|



chorus
-----------------------------------------------------------|
-----------------------------------------------------------|
---777-x-555-x--333-x---------22-33-22-33-6666666666666666-|
---777-x-555-x--333-x--333-x--22-22-22-22-5555555555555555-|
---555-x-333-x--111-x--333-x--00-00-00-00-0000000000000000-|
---555-x-333-x--111-x--111-0-------------------------------|



bridge
66666666666666666666666666666666-55555555555555555555555555555555-8-5-|
66666666666666666666666666666666-66666666666666666666666666666666-6-6-|
77777777777777777777777777777777-77777777777777777777777777777777-7-7-|
----------------------------------------------------------------------|
----------------------------------------------------------------------|
----------------------------------------------------------------------|



bridge
|--66666666666666666666666666666666-55555555555555555555555555555555--|
|:-66666666666666666666666666666666-66666666666666666666666666666666-:|
|--77777777777777777777777777777777-77777777777777777777777777777777--|
|---------------------------------------------------------------------|
|:-------------------------------------------------------------------:|
|---------------------------------------------------------------------|



bridge
I don’t wanna take
-6--------------------5--------------------------------------------|
-6-----------------------------------------------------------------|
-7-----------------------------------------------------------------|
-------------------------------------------------------------------|
-------------------------------------------------------------------|
-------------------------------------------------------------------|



bridge
-666666-5555555555-6666666-5555-8---5-----666666-5555555555-|
-666666-6666666666-6666666-6666-6-6-6-66--666666-6666666666-|
------------------------------------------------------------|
------------------------------------------------------------|
------------------------------------------------------------|
------------------------------------------------------------|



bridge
--8---6---5---5---5---8---6---5---5---5--66666666x8--let-----------|
--6-6-6-6-6-6-6-6-6---6-6-6-6-6-6-6-6-6--66666666x8--ring----------|
-----------------------------------------77777777x5----------------|
-------------------------------------------------------------------|
-------------------------------------------------------------------|
-------------------------------------------------------------------|



chorus
|---------------------------------------------------------|
|:-------------------------------------------------------:|
|---7777-3333--10-10-10-x--9/10\9---7777-3333-------------|
|---7777-3333---x--x--x-x--x--x-x---7777-3333-5555-7777---|
|:--5555-1111---8--8--8-x--7/-8\7---5555-1111-5555-7777--:|
|---5555-1111-----------------------5555-1111-3333-5555---|



chorus
------------------------------|
------------------------------|
---777-x-555-x--333-x---------|
---777-x-555-x--333-x--333-x--|
---555-x-333-x--111-x--333-x--|
---555-x-333-x--111-x--111-0--|



chorus
-------------------------------------|
-------------------------------------|
---777-x-555-x--333-x--10-10-10-10---|
---777-x-555-x--333-x--10-10-10-10---|
---555-x-333-x--111-x---8--8--8--8---|
---555-x-333-x--111-x---8--8--8--8---|



chorus
--------------------------------------------66666666-5----|
--------------------------------------------66666666-6----|
---777-x-555-x--333-x---------22-33-22-33-6-77777777-7----|
---777-x-555-x--333-x--333-x--22-22-22-22-5---------------|
---555-x-333-x--111-x--333-x--00-00-00-00-0---------------|
---555-x-333-x--111-x--111-0------------------------------|
Suggest correction
Give kudos to tab author, rate the tab!
1 2 3 4 5
comments
print report bad tab
1 comment total.
0 reply
AlienFreak77 1,997 wrote on January 31 2011, 08:47 pm

For the proper bridge, which is not mine by the way, go here:
http://tabs.ultimate-guitar.com/a/alkaline_trio/in_vein_tab.htm
To version one, by chromaticvision,
****ing amazing job on all accounts with his tab.

guest
You may want to rate the tab now too:
select rating
Wanna post a correction for this tab? Suggest correction