Oops, an error
Loading. Please wait.

Into The Night Bass Tab

2,097 views 1 this week
4 commentsread comments
1 2 3 4 5
excellent!
x 3
add to favorites
launch autoscroll
font size
0
reset
guitar tuner
Tab Pro tools
  • play this tab
  • loop segment
  • change instrument
  • show fretboard
  • metronome
×
Best way to learn
"Into The Night"
Autoscroll
slow
fast
+/-
esc
set tempo
stop
Contributor
Band: Alkaline Trio
Album: Agony And Irony
Song: Into The Night 

Please rate

Corrections are welcome

0:00 

G|----------------------------------|
D|-5-5-5-5-5-5-5-5-5-5-5-5-5-5-5-5--| 
A|----------------------------------|
E|----------------------------------|

G|----------------------------------|
D|----------------------------------| 
A|-55555555-------------------------|
E|---------111111113333333366666666-|

0:11

G|----------------------------------|
D|----------------------------------| 
A|-555555555555555588888888---------| x2
E|-------------------------66666666-|

0:21

G|----------------------------------|
D|-------------------------88888888-| 
A|-555555555555555588888888---------| x2
E|----------------------------------|

0:32

G|----------------------------------|
D|----------------------------------| 
A|-555-------------5357875----------|
E|----3111166666666-------866666666-|

G|----------------------------------|
D|----------------------------------| 
A|-555------------------------------|
E|----31111666666668888888888888888-|

0:44

G|----------------------------------|
D|-----------------------------5555-| 
A|-------------------------3333-----| x2
E|-111111111111111155555555---------|

G|----------------------------------|
D|----------------------------------| 
A|-11111111--------3333333355553333-|
E|---------11111111-----------------|

G|----------------------------------|
D|----------------------------------| 
A|-11111111111111013333333333334444-|
E|----------------------------------|

1:05

G|----------------------------------|
D|----------------------------------| 
A|-555555555555555588888888---------| x2
E|-------------------------66666666-|

G|----------------------------------|
D|-------------------------88888888-| 
A|-555555555555555588888888---------| x2
E|----------------------------------|

1:28

G|----------------------------------|
D|----------------------5-----------|
A|555---------88---53578-8----------|
E|---311116666--66--------866666666-|
	
1:33

G|----------------------------------|
D|-------------------------55555555-| 
A|-5-5-----1-1-0-1-33333333---------|
E|-----1-1--------------------------|

1:39

G|----------------------------------|
D|-----------------------------5555-| 
A|-------------------------3333-----| 
E|-111111111111111155555555---------|

G|----------------------------------|
D|-----------------------------5555-| 
A|-8888888888888888--------3333-----| 
E|-----------------55555555---------|

1:51

G|----------------------------------|
D|---------------------55-----------| 
A|-----------------3333--3355553333-|
E|-6666666111111111-----------------|

G|----------------------------------|
D|---------3333---------------------| 
A|-11111111----0-1-3333333333334444-|
E|----------------------------------|

2:01

G|-----------------7777777777777777-|
D|----------------------------------| 
A|-5-5-5-5-5-5-5-5------------------|
E|----------------------------------|

G|----------------------------------|
D|----------------------------------| 
A|-55555555-------------------------|
E|---------111111113333333366666666-|

2:12

G|----------------------------------|
D|----------------------5-----------| 
A|555--------------53578-8----------|
E|---3111166666666--------866666666-|

G|----------------------------------|
D|----------------------------------| 
A|-5-5-----1-1-0-1-3333333333333333-|
E|-----1-1--------------------------|

G|----------------------------------|
D|----------------------------------| 
A|----------------------------------| 
E|-11111111111111115555555588888888-|

G|----------------------------------|
D|----------------------------------| 
A|-8888888888888888-----------------| 
E|-----------------5555555588888888-|

G|----------------------------------|
D|----------------------------------| 
A|-----------------3333333355553333-|
E|-6666666111111111-----------------|

G|----------------------------------|
D|---------3333---------------------| 
A|-11111111----0-1-3333333333334444-|
E|----------------------------------|

2:46

G|----------------------------------|
D|----------------------------------| 
A|-555555555555555588888888---------| x3
E|-------------------------66666666-|

3:02

G|-----------------------------------|
D|-----------------------------------| 
A|-555555555555555588888888--------5~|
E|-------------------------66665-6---|
comments
We did not receive enough feedback on this tab! Please rate:
print report bad tab
1 2 3 4 5
4 comments total. Showing first comments.
0 reply
spiff-corgi wrote on July 22 2008, 08:24 am

the fills at the bridges are wrong. other than that it's good.

0 reply
chrisjenks wrote on July 22 2008, 08:54 am

ye i think your right...i will re-do the bridges

0 reply
chrisjenks wrote on July 22 2008, 09:07 am

they are corrected now

I want to post or [tab]
guest
You may want to rate the tab now too:
select rating
Please do not post tabs as comments. Select "correction" instead!