Oops, an error
Loading. Please wait.

Kick Rocks Tab

version 1
version 1

Whole song

Interactive

2,670 views 1 this week
5 commentsread comments
1 2 3 4 5
excellent!
x 6
add to favorites
launch autoscroll
font size
0
reset
how to read this tab
guitar tuner
Autoscroll
slow
fast
+/-
esc
set tempo
stop
Help us to improve Ultimate-Guitar.com Take our survey!
×
Difficulty
intermediate
----------------------------------------------------------------------------
                             Kick Rocks - Alkaline Trio
----------------------------------------------------------------------------
Tabbed by: Ben Tucker
Email: ben_tckr@yahoo.com

Tuning: Standard

Intro(Lead):                                     End on:
e|-9--9-10-9-------9--9-10-12-10-9-----|   e|--------|
B|--10------10-9-10-10------------10---|   B|-9-10---|
G|-------------------------------------|X2 G|--------|
D|-------------------------------------|   D|--------|
A|-------------------------------------|   A|--------|
E|-------------------------------------|   E|--------|

Intro(Rhythm):
e|-----------------------|
B|-----------------------|
G|------6666------7777---|x2
D|-7777-6666-4444-7777---|
A|-7777-4444-4444-5555---|
E|-5555------2222--------|

Verse(Rhythm):                       Transition:
e|-----------------------|   e|-------------------|---------------------|
B|-----------------------|   B|-------------------|---------------------|
G|------6666------7777---|x4 G|-99999999-77777777-|------6666------7777-|x2
D|-7777-6666-4444-7777---|   D|-99999999-77777777-|-7777-6666-4444-7777-|
A|-7777-4444-4444-5555---|   A|-77777777-55555555-|-7777-4444-4444-5555-|
E|-5555------2222--------|   E|-------------------|-5555------2222------|

e|-----------------------|   e|-------------------|
B|-----------------------|   B|-------------------|
G|------6666------7777---|x4 G|-99999999-77777777-|
D|-7777-6666-4444-7777---|   D|-99999999-77777777-|
A|-7777-4444-4444-5555---|   A|-77777777-55555555-|
E|-5555------2222--------|   E|-------------------|

Verse(lead second half):
e|----------------------------------------------|
B|----------------------------------------------|
G|-6-6-6-----6-6-6-----6-6-6-----6-6-7-9-7-6----|
D|--7-7-7-6-7-7-7-7-6-7-7-7-7-6-7-7---------7---|x2
A|----------------------------------------------|
E|----------------------------------------------|

Chorus:
e|--------------------|---|----------------------------------------|
B|--------------------|---|----------------------------------------|
G|------7777-99999999-|x2-|--------------------77777777-99999999---|
D|-7777-7777-99999999-|---|-7777-6666-44444444-77777777-99999999---|
A|-7777-5555-77777777-|---|-7777-6666-44444444-55555555-77777777---|
E|-5555---------------|---|-5555-4444-22222222---------------------|

Lead during refrain:
e|----------------------------|
B|----------------------------|
G|----------------------------|
D|-7-7-6-6-7-7---7-7-6-6------|
A|----------------------9-7---|
E|----------------------------|

Intro(Lead):                               End on:
e|-9--9-10-9-------9--9-10-12-10-9-----|   e|--------|
B|--10------10-9-10-10------------10---|   B|-9-10---|
G|-------------------------------------|X2 G|--------|
D|-------------------------------------|   D|--------|
A|-------------------------------------|   A|--------|
E|-------------------------------------|   E|--------|

Intro(Rhythm):
e|-----------------------|
B|-----------------------|
G|------6666------7777---|x2
D|-7777-6666-4444-7777---|
A|-7777-4444-4444-5555---|
E|-5555------2222--------|

Verse(Rhythm):               Transition:
e|-----------------------|   e|-------------------|---------------------|
B|-----------------------|   B|-------------------|---------------------|
G|------6666------7777---|x4 G|-99999999-77777777-|------6666------7777-|
D|-7777-6666-4444-7777---|   D|-99999999-77777777-|-7777-6666-4444-7777-|
A|-7777-4444-4444-5555---|   A|-77777777-55555555-|-7777-4444-4444-5555-|
E|-5555------2222--------|   E|-------------------|-5555------2222------|

Chorus:
e|--------------------|---|----------------------------------------|
B|--------------------|---|----------------------------------------|
G|------7777-99999999-|x2-|--------------------77777777-99999999---|
D|-7777-7777-99999999-|---|-7777-6666-44444444-77777777-99999999---|
A|-7777-5555-77777777-|---|-7777-6666-44444444-55555555-77777777---|
E|-5555---------------|---|-5555-4444-22222222---------------------|

Lead during refrain:
e|----------------------------|
B|----------------------------|
G|----------------------------|
D|-7-7-6-6-7-7---7-7-6-6------|
A|----------------------9-7---|
E|----------------------------|


Bridge:
e|-------------------------------------------------------------------------|
B|-------------------------------------------------------------------------|
G|-99999999----------77777777-------------------77777777-999999999999------|
D|-99999999-44444444-77777777-77777777-44444444-55555555-999999999999-\\\\\|
A|-77777777-44444444-55555555-77777777-44444444-55555555-777777777777-\\\\\|
E|----------22222222----------55554444-22222222----------------------------|

Chorus:
e|--------------------|---|----------------------------------------|
B|--------------------|---|----------------------------------------|
G|------7777-99999999-|x2-|--------------------77777777-99999999---|x2
D|-7777-7777-99999999-|---|-7777-6666-44444444-77777777-99999999---|
A|-7777-5555-77777777-|---|-7777-6666-44444444-55555555-77777777---|
E|-5555---------------|---|-5555-4444-22222222---------------------|

Lead during last refrain:
e|---------------------------------|
B|---------------------------------|
G|---------------------------------|
D|-7-7-6-6-7-7---7-7-9-9-11-11~----|
A|---------------------------------|
E|---------------------------------|

Outro(Rhythm):
e|-----------------------|
B|-----------------------|
G|------6666------7777---|
D|-7777-6666-4444-7777---|
A|-7777-4444-4444-5555---|
E|-5555------2222--------|

Outro(Lead):
e|-9--9-10-9-------9--9-10-12-10-9-----|
B|--10------10-9-10-10------------10---|
G|-------------------------------------|
D|-------------------------------------|
A|-------------------------------------|
E|-------------------------------------|

That's it.  It's an easy song, have fun with it and e-mail me with corrections or 
of songs you want tabbed.

************************************

| /   slide up
| \   slide down
| h   hammer-on
| p   pull-off
| ~   vibrato
| +   harmonic
| x   Mute note
| b   Bend
| pb  Pre-bend
| br  Bend release
| pbr Pre-bend release
| brb Bend release bend

************************************
Suggest correction
What's this?
You can suggest a correction to this tab. Community and Mods will review your correction and vote to approve or reject it.
comments
print report bad tab
5 comments total. Showing first comments.
0 reply
Storer 225 wrote on July 7 2010, 12:11 pm

this tab is perfect, thank you so much!

0 reply
Alk3fan007 26 wrote on November 11 2010, 10:17 pm

welcome dude :D

0 reply
Pliskinz 31 wrote on June 3 2011, 09:48 am

i've been waitng for this tab : ]

guest
You may want to rate the tab now too:
select rating
Please do not post tabs as comments. Select "correction" instead!