Oops, an error
Loading. Please wait.

Lead Poisoning Bass Tab

version 2
version 2

Whole song

Interactive

209 views 1 this week
no commentswrite comment
1 2 3 4 5
3 more votes to show rating
add to favorites
launch autoscroll
font size
0
reset
guitar tuner
Autoscroll
slow
fast
+/-
esc
set tempo
stop
Help us to improve Ultimate-Guitar.com Take our survey!
×
Author
Difficulty
novice
Alkaline Trio – Lead Poisoning


G |------------------------------------------------------------------------|
D |------------------------------------------------------------------------|
A |--------------------2-222--7-555--------------2-222-7-555---------------|
E |---15\3-3-333-3-333---------------3-333-3-333---------------------------|

G |------------------------------------------------------------------------|
D |------------------------------------------------------------------------|
A |----3-333---------5-555--7-555--3-333-3-333-5-555-6-666-----------------|
E |-----------3-333--------------------------------------------------------|

G |------------------------------------------------------------------------|
D |---------------------------55-5-----------------------------------------|
A |---------------------3-333------55-----------------------3-333----------|
E |-0033-0033-0033-0033----------------0033-0033-0033-0033---------3-022---|

G |-----------------------------------------------------------------------|
D |-----------------------------55-5--------------------------------------|
A |-----------------------3-333------55---------------------3-333---------|
E |--0033-0033-0033-0033----------------0033-0033-0033-0033-----------10\-|

0:44

G |--------------------------------------------------------------------|
D |--------------------------------------------------------------------|
A |--------------------------------------------------------------------|
E |-3-333-3-333-3-333-3-333--------------------------------------------|

G |---------------------------------------------------------------------|
D |---------------------------------------------------------------------|
A |--------------------2-222--7-555--------------2-222-7-555------------|
E |----3-333-3-333-------------------3-333-3-333------------------------|

G |---------------------------------------------------------------------|
D |---------------------------------------------------------------------|
A |----3-333---------5-555--7-555--3-333-3-333-5-555-6-666--------------|
E |-----------3-333-----------------------------------------------------|

G |------------------------------------------------------------------------|
D |---------------------------55-5-----------------------------------------|
A |---------------------3-333------55-----------------------3-333----------|
E |-0033-0033-0033-0033----------------0033-0033-0033-0033---------3-022---|

G |-----------------------------------------------------------------------|
D |-----------------------------55-5--------------------------------------|
A |-----------------------3-333------55---------------------3-333---------|
E |--0033-0033-0033-0033----------------0033-0033-0033-0033-----------10\-|

G |--------------------------------------------------------------------|
D |--------------------------------------------------------------------|
A |--------------------------------------------------------------------|
E |-3-333-3-333-3-333-3-333--------------------------------------------|

G |--------------------------------------------------------------------------|
D |-----------------------55--------------5----------------------------------|
A |----------002-5-555-5-5--9-7-777-7-7-99--3-333-3-2-0-2--------------------|
E |-3-333-3-3----------------------------------------------------------------|

G |---------------------------------------------------------------------|
D |------------------------55--------------5----------------------------|
A |------------52-5-555-5-5--9-7-777-7-7-99--3-333-5-555----------------|
E |-3-333--3-3----------------------------------------------------------|

G |---------------------------------------------------------------------------|
D |------------------------55--------------5----------------------------------|
A |----------0022-5-555-5-5--9-7-777-7-7-99--3-333-3-2-0-2--------------------|
E |-3-333-3-3-----------------------------------------------------------------|


G |----------------------------------------------------------------------|
D |------------------------55--------------5-----------------------------|
A |------------52-5-555-5-5--9-7-777-7-7-99--3-333-5-555-----------------|
E |-3-333—3-3------------------------------------------------------------|

G |------------------------------------------------------------------------|
D |---------------------------55-5-----------------------------------------|
A |---------------------3-333------55-----------------------3-333----------|
E |-0033-0033-0033-0033----------------0033-0033-0033-0033---------3-022---|

G |-----------------------------------------------------------------------|
D |-----------------------------55-5--------------------------------------|
A |-----------------------3-333------55---------------------3-333---------|
E |--0033-0033-0033-0033----------------0033-0033-0033-0033-----------10\-|


G |--------------------------------------------------------------------|
D |--------------------------------------------------------------------|
A |-------------------------end on-10----------------------------------|
E |-3-333-3-333-3-333-3-333--------------------------------------------|
Suggest correction
Give kudos to tab author, rate the tab!
1 2 3 4 5
comments
print report bad tab
guest
You may want to rate the tab now too:
select rating
Wanna post a correction for this tab? Suggest correction