Oops, an error
Loading. Please wait.

Lead Poisoning Tab

version 2
version 2

Whole song

Interactive

125 views 1 this week
no commentswrite comment
1 2 3 4 5
please rate
add to favorites
launch autoscroll
font size
0
reset
how to read this tab
guitar tuner
Autoscroll
slow
fast
+/-
esc
set tempo
stop
Help us to improve Ultimate-Guitar.com Take our survey!
×
Author
Difficulty
novice
Alkaline Trio  Lead Poisoning


Intro/Bridge
e |----------------------------------------------------------------------------|
B |----------------------------------------------------------------------------|
G |----------------------------------------------------------------------------|
D |-5-555--5-555--5-555--5-555-------------------------------------------------|
A |-5-555--5-555--5-555--5-555-------------------------------------------------|
E |-3-333--3-333--3-333--3-333-------------------------------------------------|

Verse
e |----------------------------------------------------------------------------|
B |----------------------------------------------------------------------------|
G |----------------------9-777-----------------------9-777---------------------|
D |-5-555--5-555--9-999--9-777--5-555--5-555--9-999--9-777---------------------|
A |-5-555--5-555--9-999--7-555--5-555--5-555--9-999--7-555---------------------|
E |-3-333--3-333--7-777---------3-333--3-333--7-777----------------------------|

e |----------------------------------------------------------------------------|
B |----------------------------------------------------------------------------|
G |-5-555---------7-777-9-7-777-5-555-5-555-7-777-8-888------------------------|
D |-5-555--5-555--7-777-9-7-777-5-555-5-555-7-777-8-888------------------------|
A |-3-333--5-555--5-555-7-5-555-3-333-3-333-5-555-6-666------------------------|
E |--------3-333---------------------------------------------------------------|

Chorus a
e |----------------------------------------------------------------------------|
B |----------------------------------------------------------------------------|
G |--7/9-99/11-1111/12-1212-1414--55-555-1212-12-77----------------------------|
D |--x/x-xx/-x--x-x/-x--x-x-x-x---55-555-1212-12-77----------------------------|
A |--5/7-77/-9--9-9/10-1010-1212--33-333-1010-10-55----------------------------|
E |----------------------------------------------------------------------------|

Chorus b
e |----------------------------------------------------------------------------|
B |----------------------------------------------------------------------------|
G |--7/9-99/11-1111/12-1212-1414--55-555---------------------------------------|
D |--x/x-xx/-x--x-x/-x--x-x-x-x---55-555-5~------------------------------------|
A |--5/7-77/-9--9-9/10-1010-1212--33-333-5~------------------------------------|
E |--------------------------------------3~------------------------------------|

Chorus a

Chorus c
e |----------------------------------------------------------------------------|
B |----------------------------------------------------------------------------|
G |--7/9-99/11-1111/12-1212-1414--55-555-7\------------------------------------|
D |--x/x-xx/-x--x-x/-x--x-x-x-x---55-555-7\------------------------------------|
A |--5/7-77/-9--9-9/10-1010-1212--33-333-5\------------------------------------|
E |----------------------------------------------------------------------------|

Intro/Bridge

Verse

Chorus a
Chorus b
Chorus a
Chorus c

Intro/Bridge

Verse (Variation) repeat 2 times
e |----------------------------------------------------------------------------|
B |----------------------------------------------------------------------------|
G |---------------7-777--7-777--9-999-9-999-5-555-5-555------------------------|
D |-5-555--5-555--7-777--7-777--9-999-9-999-5-555-5-555------------------------|
A |-5-555--5-555--5-555--5-555--7-777-7-777-3-333-3-333------------------------|
E |-3-333--3-333---------------------------------------------------------------|

e |----------------------------------------------------------------------------|
B |----------------------------------------------------------------------------|
G |---------------7-777--7-777--9-999-9-999-5-555-7-777------------------------|
D |-5-555--5-555--7-777--7-777--9-999-9-999-5-555-7-777------------------------|
A |-5-555--5-555--5-555--5-555--7-777-7-777-3-333-5-555------------------------|
E |-3-333--3-333---------------------------------------------------------------|

Chorus a
Chorus b
Chorus a
Chorus c

Ending
e |----------------------------------------------------------------------------|
B |----------------------------------------------------------------------------|
G |----------------------------------------------------------------------------|
D |-5-555--5-555--5-555--5~----------------------------------------------------|
A |-5-555--5-555--5-555--5~----------------------------------------------------|
E |-3-333--3-333--3-333--3~----------------------------------------------------|
Suggest correction
Give kudos to tab author, rate the tab!
1 2 3 4 5
comments
print report bad tab
guest
You may want to rate the tab now too:
select rating
Wanna post a correction for this tab? Suggest correction