Oops, an error
Loading. Please wait.

Lead Poisoning Tab

version 3
version 3

Whole song

Interactive

171 views 1 this week
1 commentread comment
1 2 3 4 5
2 more votes to show rating
add to favorites
launch autoscroll
font size
0
reset
how to read this tab
guitar tuner
Autoscroll
slow
fast
+/-
esc
set tempo
stop
Help us to improve Ultimate-Guitar.com Take our survey!
×
Author
Difficulty
---------------------------------------------------------------------------
                     Lead Poisoning - Alkaline Trio
---------------------------------------------------------------------------
Tabbed by: SilverDolphin
My cover: https://www.youtube.com/watch?v=719O-WWre04

Tuning: Standard EADGBe

Intro
  G5  
e|-------| X4
B|-------|
G|-------|
D|-5-555-|
A|-5-555-|
E|-3-333-|

Verse
  G5           B5    E5 D5 
e|-------------------------| X2
B|-------------------------|
G|-------------4-444-9-777-|
D|-5-555-5-555-4-444-9-777-|
A|-5-555-5-555-2-222-7-555-|
E|-3-333-3-333-------------|

   C5    G5    D5    E5 D5 C5          D5
e|-------------------------------------------------|
B|-------------------------------------------------|
G|-5-555-------7-777-9-777-5-555-5-555-7-777-8-888-|
D|-5-555-5-555-7-777-9-777-5-555-5-555-7-777-7-777-|
A|-3-333-5-555-5-555-7-555-3-333-3-333-5-555-5-555-|
E|-------3-333-------------------------------------|

Chorus
                                                      
e|-------------------------------------------------------| X3
B|-------------------------------------------------------|
G|-7/9-9/11-11--11/12-12--12/14-14--5555-5555------7777--|
D|-x-x-x-x--x----x-x--x---x--x--x---5555-5555-5555-7777--|
A|-5/7-7/9--9----9/10 10--10/12-12--3333-3333-5555-5555--|
E|--------------------------------------------3333-------|

e|-------------------------------------------------------| 
B|-------------------------------------------------------|
G|-7/9-9/11-11--11/12-12--12/14-14--5555-5555-7\---------|
D|-x-x-x-x--x----x-x--x---x--x--x---5555-5555-7\---------|
A|-5/7-7/9--9----9/10 10--10/12-12--3333-3333-5\---------|
E|-------------------------------------------------------|

 G5  
e|-------| X4
B|-------|
G|-------|
D|-5-555-|
A|-5-555-|
E|-3-333-|

Verse
  G5           B5    E5 D5 
e|-------------------------| X2
B|-------------------------|
G|-------------4-444-9-777-|
D|-5-555-5-555-4-444-9-777-|
A|-5-555-5-555-2-222-7-555-|
E|-3-333-3-333-------------|

   C5    G5    D5    E5 D5 C5          D5
e|-------------------------------------------------|
B|-------------------------------------------------|
G|-5-555-------7-777-9-777-5-555-5-555-7-777-8-888-|
D|-5-555-5-555-7-777-9-777-5-555-5-555-7-777-7-777-|
A|-3-333-5-555-5-555-7-555-3-333-3-333-5-555-5-555-|
E|-------3-333-------------------------------------|

Chorus
                                                      
e|-------------------------------------------------------| X3
B|-------------------------------------------------------|
G|-7/9-9/11-11--11/12-12--12/14-14--5555-5555------7777--|
D|-x-x-x-x--x----x-x--x---x--x--x---5555-5555-5555-7777--|
A|-5/7-7/9--9----9/10 10--10/12-12--3333-3333-5555-5555--|
E|--------------------------------------------3333-------|

e|-------------------------------------------------------| 
B|-------------------------------------------------------|
G|-7/9-9/11-11--11/12-12--12/14-14--5555-5555-7\---------|
D|-x-x-x-x--x----x-x--x---x--x--x---5555-5555-7\---------|
A|-5/7-7/9--9----9/10 10--10/12-12--3333-3333-5\---------|
E|-------------------------------------------------------|

Bridge

  G5  
e|-------| X4
B|-------|
G|-------|
D|-5-555-|
A|-5-555-|
E|-3-333-|

  
Guitar 1
   G5          D5          E5          C5
e|------------------------------------------------------------| X4
B|------------------------------------------------------------|
G|-------------7-777-7-777-9-999-9-999-5-555-5-555------------|
D|-5-555-5-555-7-777-7-777-9-999-9-999-5-555-5-555------------|
A|-5-555-5-555-5-555-5-555-7-777-7-777-3-333-3-333------------|
E|-3-333-3-333------------------------------------------------|

Guitar 2 (first time only)
e|------------------------------------------------------------| 
B|------------------------------------------12-13-12----------|
G|---------------------------------------------------14-12----|
D|------------------------------------------------------------|
A|------------------------------------------------------------|
E|------------------------------------------------------------|

- "Solo" (starts on the third time of Guitar 1)

e|-10-101010-87-8-7--10-101010-87-8----10-101010-87-8-10-12-10-7--------|
B|----------------------------------8-----------------------------------|
G|----------------------------------------------------------------------|

e|-10-101010-87-8-7--10-101010-12108-7--10-101010-87-8-108787--7--------|
B|-----------------------------------------------------------10-1078----|
G|----------------------------------------------------------------------|

Chorus
                                                      
e|-------------------------------------------------------| X3
B|-------------------------------------------------------|
G|-7/9-9/11-11--11/12-12--12/14-14--5555-5555------7777--|
D|-x-x-x-x--x----x-x--x---x--x--x---5555-5555-5555-7777--|
A|-5/7-7/9--9----9/10 10--10/12-12--3333-3333-5555-5555--|
E|--------------------------------------------3333-------|

e|-------------------------------------------------------| 
B|-------------------------------------------------------|
G|-7/9-9/11-11--11/12-12--12/14-14--5555-5555-7\---------|
D|-x-x-x-x--x----x-x--x---x--x--x---5555-5555-7\---------|
A|-5/7-7/9--9----9/10 10--10/12-12--3333-3333-5\---------|
E|-------------------------------------------------------|

 G5  X3
e|-------|-------|
B|-------|-------|
G|-------|-12\---|
D|-5-555-|-x-----|
A|-5-555-|-10\---|
E|-3-333-|-------|


************************************

| /   slide up
| \   slide down
| h   hammer-on
| p   pull-off
| ~   vibrato
| +   harmonic
| x   Mute note
| b   Bend

************************************
Suggest correction
Give kudos to tab author, rate the tab!
1 2 3 4 5
comments
print report bad tab
1 comment total.
0 reply
SilverDolphin 172 Sep 12, 2012 06:52 AM

To whomever rated this **, why?! This tab has all the parts and chord names written. I even included the trumpet solo!

guest
You may want to rate the tab now too:
select rating
Wanna post a correction for this tab? Suggest correction