Oops, an error
Loading. Please wait.

Live Young Die Fast Bass Tab

version 1
version 1

Whole song

Interactive

1,132 views 1 this week
no commentswrite comment
1 2 3 4 5
please rate
add to favorites
launch autoscroll
font size
0
reset
guitar tuner
Tab Pro tools
  • play this tab
  • loop segment
  • change instrument
  • show fretboard
  • metronome
×
Best way to learn
"Live Young Die Fast"
Autoscroll
slow
fast
+/-
esc
set tempo
stop
Contributor
Band: Alkaline Trio
Album: Agony and Irony
Song: Live young die fast

Please rate

Corrections and comments are welcome

Intro 0:00

G|--------------------------|
D|--------------------------| 
A|-------555575444444444420-|
E|-222245-------------------|

G|--------------------------|
D|--------------------------| 
A|-------555575444---2-20-0-|
E|-222245-------------------|


Verse 0:13

G|--------------------------------------------------|
D|-------------------------4-----6--7---------------|
A|-------------5---------75------------5-----4--2---|
E|-2---------45-------------------------------------|

Pre-chorus 0:27

G|--------------------------------------------------|
D|--------------------------------------------------| 
A|-------555555------------------------555555777777-|
E|-555555------222222222222000---000000-------------|

Chorus 0:41

G|--------------------------|
D|--------------------------| 
A|-------555555-------------|
E|-555555------222222222000-|

G|--------------------------|
D|-------------------222222-| 
A|-------555555-------------| 
E|-555555------222222-------|

G|--------------------------|
D|----------------444-------| 
A|-------555555-------------| 
E|-555555------222---000000-|

G|--------------------------|
D|--------------------------| 
A|-------555555-------------| 
E|-555555------222222000000-|

G|--------------|
D|--------------| 
A|-555555555444-|
E|--------------|

Pre-verse 1:11

G|--------------------------|
D|--------------------------| 
A|-------555555444---444420-|
E|-222245-------------------|

Verse 1:17

G|--------------------------------------------------|
D|-------------------------4-----6--7---------------|
A|-------------5---------75------------5-----4--2---|
E|-2---------45-------------------------------------|

G|--------------------------------------------------|
D|--------------------------------------------------| 
A|-------555555------------------------555555-------|
E|-555555------222222222222000---000000------000000-|

Chorus 1:43

G|--------------------------|
D|--------------------------| 
A|-------555555-------------|
E|-555555------222222222000-|

G|--------------------------|
D|-------------------222222-| 
A|-------555555-------------| 
E|-555555------222222-------|

G|--------------------------|
D|--------------------------| 
A|-------555555-------------| x2
E|-555555------222222000000-|


Bridge 2:10 x2

G|--------------------------|
D|----------------7-----5---| 
A|-222222555555444-44-------|
E|-------------------333-33-|

G|--------------------------|
D|--------------------------| 
A|-222222------555555777777-|
E|-------333333-------------|

Chorus 2:37

G|--------------------------|
D|--------------------------| 
A|-------555555-------------|
E|-555555------222222222000-|

G|--------------------------|
D|-------------------222222-| 
A|-------555555-------------| 
E|-555555------222222-------|

G|--------------------------|
D|----------------444-------| 
A|-------555555-------------| 
E|-555555------222---000000-|

G|--------------------------|
D|--------------------------| 
A|-------555555-------------| 
E|-555555------222222000000-|

G|--------------|
D|--------------| 
A|-555555555555-|
E|--------------|

Final Chorus 3:07

G|--------------------------|
D|--------------------------| 
A|-------555555-------------|
E|-555555------222222222000-|

G|--------------------------|
D|-------------------222222-| 
A|-------555555-------------| 
E|-555555------222222-------|

3:21

G|-------766766-------------|
D|-767976---------444-------| 
A|--------------------------|
E|-------------222---000000-|

G|--------------------------|
D|--------------------------| 
A|-------555555-------------| 
E|-555555------222222000000-|

G|--------------|
D|--------------| 
A|-555555555444-|
E|--------------|

Outro 3:37

G|-------7-76-6-|
D|-4-46-6-------| 
A|--------------| x7
E|--------------|

G|---------------|
D|-4-42-2--------| 
A|-------4-45-5--|
E|-------------2~|
comments
We did not receive enough feedback on this tab! Please rate:
print report bad tab
1 2 3 4 5
I want to post or [tab]
guest
You may want to rate the tab now too:
select rating
Please do not post tabs as comments. Select "correction" instead!