Oops, an error
Loading. Please wait.

Lost And Rendered Bass

version 1
version 1

Whole song

Interactive

411 views 1 this week
no commentswrite comment
1 2 3 4 5
1 last vote to show rating
add to favorites
launch autoscroll
font size
0
reset
guitar tuner
×
Best way to learn
"Lost And Rendered"
Autoscroll
slow
fast
+/-
esc
set tempo
stop
Difficulty
intermediate
Tabbed by: JaredPenland@gmail.com


Intro/Bass solo:
G---------------------------------------------------|
D---------------------------------------------------|
A--------5-6-7-------------------------5-6-7--5-3-2-|    (x2)
E-0-0--0--------0-0--0-3-0-2-0---0-0--0------3------|

Verse:
G-----------------------------------------|
D--------2-2--2---------------------------|
A--------------------3-3--3-3-2-2-3-3-5-5-|
E-0-0--0-------3-3--3---------------------|

G-----------------------------------------|
D--------2-2--2---------------------------|
A--------------------3-3--3-3-2-2-3-3-0-0-|
E-0-0--0-------3-3--3---------------------|

G----------------|
D----------------|
A----7-7-5-5-3-3-|  (x3)
E-0-0------------|

Chorus: (Listen to the song to figure out how many times you hit each note)
G---------------------------------------------------|
D---------------------------------------------------|
A---------3-3-3-3-0-0-0-0-----------2-2-2-2-3-3-3-3-| (x2)
E-0-0-0-0-------------------0-0-0-0-----------------|

Bridge:
G--------------------------------------|
D--------------------------------------|
A----------------3-3-3-3-------3-3-2-2-| (x2)
E-0-0-0-0-3-3-3-3-------5-5-5-5--------|

G---------------------------------|
D---------------------------------|
A--------3-3-2-2- (x3) -----------|
E-0-0-3-3-----------------5-5-5-5-|

Outro:
G---------------------------------------------------|
D---------------------------------------------------|
A---------3-3-3-3-0-0-0-0-----------2-2-2-2-3-3-3-3-| (x2)
E-0-0-0-0-------------------0-0-0-0-----------------|

Notes: I am a little unsure of the Bass solo, it sounds more complicated than
I can figure out, but this is a close approximation.
Please e-mail me if you know a more accurate way to play the intro!
Also, these are the notes I found, however timing and number of times you
need to hit the note you will need to figure out by listening to the song.
Suggest correction
Give kudos to tab author, rate the tab!
1 2 3 4 5
comments
print report bad tab
guest
You may want to rate the tab now too:
select rating
Wanna post a correction for this tab? Suggest correction