Oops, an error
Loading. Please wait.

Love Love Kiss Kiss Bass Tab

version 1
version 1

Whole song

Interactive

1,223 views 6 this week
1 commentread comment
1 2 3 4 5
please rate
add to favorites
launch autoscroll
font size
0
reset
guitar tuner
Autoscroll
slow
fast
+/-
esc
set tempo
stop
Help us to improve Ultimate-Guitar.com Take our survey!
×
Difficulty
novice
Love Love, Kiss Kiss by Alkaline Trio 

Nobody has posted a bass tab for this, so i decided to take matters into my own hands.  Enjoy!



Intro:
G|--------------------------------------------------|
D|--------------------------------------------------|
A|----------------2-2-2-2-3-3-3-3-------------------|
E|3-3-3-3-3-3-3-3-----------------3-3-3-3-3-3-3-0---|

Verse:
G|--------------------------------------------------|
D|--------------------------------------------------|
A|2-2-2-2-3-3-3-0-----------------------------------|
E|----------------3-3-3-3-3-3-3-0-------------------|x2


G|--------------------------------------------------|
D|--------------------------------------------------|
A|2-2-2-2-3-3-3-0-----------------2-2-2-2-3-3-3-3---|
E|----------------0-0-0-0-0-0-0-0-------------------|


G|--------------------------------------------------|
D|--------------------------------------------------|
A|----------------3-3-3-3-5-5-5-0-------------------|
E|0-0-0-0-0-0-0-0-----------------3-3-3-3-3-3-3-0---|


G|--------------------------------------------------|
D|--------------------------------------------------|
A|3-3-3-3-5-5-5-0-----------------------------------|
E|----------------3-3-3-3-3-3-3-3-------------------|

Pre-chorus:
G|--------------------------------------------------|
D|--------------------------------------------------|
A|----------3-3-0-----------------2-2-2-2-3-3-3-0---|
E|3-3-3-3-3-------3-3-3-3-3-3-3-0-------------------|


G|--------------------------------------------------|
D|--------------------------------------------------|
A|----------------2-2-2-2-3-3-3-3-------------------|
E|0-0-0-0-0-0-0-0-----------------0-0-0-0-0-0-0-0---|

Chorus:
G|--------------------------------------------------|
D|--------------------------------------------------|
A|3-3-3-3-5-5-5-0-----------------3-3-3-3-5-5-5-0---|
E|----------------3-3-3-3-3-3-3-0-------------------|


G|--------------------------------------------------|
D|--------------------------------------------------|
A|----------------3-3-3-3-5-5-5-0-------------------|
E|3-3-3-3-3-3-3-0-----------------0-0-0-0-0-0-0-0---|


G|--------------------------------------------------|
D|--------------------------------------------------|
A|3-3-3-3-5-5-5-5-----------------3-3-3-3-5-5-5-0---|
E|----------------0-0-0-0-0-0-0-0-------------------|


G|--------------------------------------------------|
D|--------------------------------------------------|
A|----------------3-3-3-3-5-5-5-0-------------------|
E|3-3-3-3-3-3-3-0-----------------3-3-3-3-3-3-3-0---|

Interlude:
G|--------------------------------------------------|
D|--------------------------------------------------|
A|3-3-3-3-5-5-5-0-----------------2-2-2-2-3-3-3-3---|
E|----------------3-3-3-3-3-3-3-3-------------------|


G|--------------------------------------------------|
D|--------------------------------------------------|
A|--------------------------------------------------|
E|3-3-3-3-3-3-3-0-----------------------------------|

Verse:
G|--------------------------------------------------|
D|--------------------------------------------------|
A|2-2-2-2-3-3-3-0-----------------------------------|
E|----------------3-3-3-3-3-3-3-0-------------------|x2


G|--------------------------------------------------|
D|--------------------------------------------------|
A|2-2-2-2-3-3-3-3-----------------2-2-2-2-3-3-3-3---|
E|----------------0-0-0-0-0-0-0-0-------------------|


G|--------------------------------------------------|
D|--------------------------------------------------|
A|--------7-7---------------------------------------|
E|0-0-0-0-----0-0-----------------------------------|

[Chorus]

Bridge:
G|--------------------------------------------------|
D|--------------------------------------------------|
A|3-3-3-3-5-5-5---7-77-0------------5-50-3----------|
E|-----------------------3--333-3-3-----------------|

G|-------------------12-----------------------------|
D|----------------------------------7---------------|
A|333-3-5--7--77-10-----10-10-5-55-5--50------------|(tens not ones)
E|--------------------------------------------------|



G|--------------------------------------------------|
D|--------------------------------------------------|
A|7-770------------5--50-3-333-3-3------------------|
E|------3--333-3-3----------------------------------|

Back to chorus
G|--------------------------------------------------|
D|--------------------------------------------------|
A|5-555-555-555-555-55-333-333-555-5-0--------------|
E|-------------------------------------3x-----------|


G|--------------------------------------------------|
D|--------------------------------------------------|
A|----------------3-3-3-3-5-5-5-5-------------------|
E|3-3-3-3-3-3-3-3-----------------0-0-0-0-0-0-0-0---|


G|--------------------------------------------------|
D|----------------------5-4-2-0-2-------------------|
A|3-3-3-3-5-5-5-5-----------------3-3-3-3-5-5-5-0---|
E|----------------0-0-0-----------------------------|


G|--------------------------------------------------|
D|--------------------------------------------------|
A|----------------3-3-3-3-5-5-5-0-------------------|
E|3-3-3-3-3-3-3-0-----------------------------------|x2


G|--------------------------------------------------|
D|--------------------------------------------------|
A|----------------3-3-3-3-5-5-5-5-------------------|
E|3-3-3-3-3-3-3-0-----------------------------------|x2


G|--------------------------------------------------|
D|--------------------------------------------------|
A|----------------3-3-3-3-5-5-5-5-------------------|
E|0-0-0-0-0-0-0-0-----------------------------------|

G|--------------------------------------------------|
D|--------------------------------------------------|
A|----------------3-3-3-3-5-5-5-0-------------------|
E|0-0-0-0-0-0-0-0-----------------3-3-3-3-3-3-3-0---|


G|--------------------------------------------------|
D|--------------------------------------------------|
A|3x---5x---3x--------------------------------------|
E|--------------------------------------------------|
Suggest correction new What's this?
You can suggest a correction to this tab. Community and Mods will review your correction and vote to approve or reject it.
comments
We did not receive enough feedback on this tab! Please rate:
print report bad tab
1 2 3 4 5
1 comment total.
0 reply
jackstephenbr 282 wrote on July 9 2015, 07:04 pm

Lack of accuracy. Incomplete in a lot of parts. Notes are right and I could make it through the song but formatting is way out of whack.

guest
You may want to rate the tab now too:
select rating
Please do not post tabs as comments. Select "correction" instead!