Oops, an error
Loading. Please wait.

Love Love Kiss Kiss Tab

version 2
version 2

Whole song

Interactive

3,925 views 3 this week
no commentswrite comment
1 2 3 4 5
accurate
x 4
add to favorites
launch autoscroll
font size
0
reset
how to read this tab
guitar tuner
Tab Pro tools
  • play this tab
  • loop segment
  • change instrument
  • show fretboard
  • metronome
×
Best way to learn
"Love Love Kiss Kiss"
Autoscroll
slow
fast
+/-
esc
set tempo
stop
Contributor
Love love kiss kiss - Alkaline Trio - Agony & Irony - EADGBe

Intro (Play through parts of verse+chorus)
e|-3--3--3--7--7-8-8--|
B|--3--3--3--7--7-8-8-|
G|---0--0-------------|
D|--------------------|   4x
A|--------------------|
E|--------------------|

Verse 1 chords (palm muted)
e|-------------|
B|-------------|
G|-----5---5-7-|
D|-5-2-5-2-5-7-|   2x
A|-5-2-3-2-3-5-|
E|-3-0---0-----|

Chorus

e|--------------------|
B|--------------------|
G|----------5555-7777-|
D|-55555555-5555-7777-|     2x
A|-55555555-3333-5555-|
E|-33333333-----------|

e|----------------------------------------|
B|----------------------------------------|
G|----------xx55555555----------5555-7777-|
D|-22222222-xx55555555-22222222-5555-7777-|
A|-22222222-xx33333333-22222222-3333-5555-|
E|-00000000------------00000000-----------|

e|--------------------|
B|--------------------|
G|----------5555-7777-|
D|-55555555-5555-7777-|     2x
A|-55555555-3333-5555-|
E|-33333333-----------|

Repeat intro riff 2x

Repeat Verse

Repeat Chorus

Interlude

e|---------------------------------------------------------|
B|---------------------------------------------------------|
G|--------------555-7777--------------55555555-7777-5555---|
D|-xx222-55555xx555-7777-xx222-55555xx55555555-7777-5555-5-|
A|-xx222-55555xx333-5555-xx222-55555xx33333333-5555-3333-5-|
E|-xx000-33333xx---------xx000-33333xx-------------------3-|

Intro riff
chorus
comments
print report bad tab
I want to post or [tab]
guest
You may want to rate the tab now too:
select rating
Please do not post tabs as comments. Select "correction" instead!