Oops, an error
Loading. Please wait.

Madam Me Bass Tab

version 1
version 1

Whole song

Interactive

1,421 views 3 this week
no commentswrite comment
1 2 3 4 5
please rate
add to favorites
launch autoscroll
font size
0
reset
guitar tuner
Tab Pro tools
  • play this tab
  • loop segment
  • change instrument
  • show fretboard
  • metronome
×
Best way to learn
"Madam Me"
Autoscroll
slow
fast
+/-
esc
set tempo
stop
Contributor
SONG: Madam Me
ALBUM: Maybe I’ll Catch Fire
ARTIST: Alkaline Trio

INTRO

G|---------|-----------------|-----------------|-----------------|-----------------|
D|---------|-----------------|-----------------|-----------------|-----------------|
A|---------|-----------------|-----------------|-2---2---2-2-2-3-|---3-3-3-3-3-3-3-|
E|---------|-0---0---0-0-0-0-|-0-0-0-0-0-0-0-0-|-----------------|-----------------|
   3 + 4 +   1 + 2 + 3 + 4 +   1 + 2 + 3 + 4 +   1 + 2 + 3 + 4 +   1 + 2 + 3 + 4 +      

G|-----------------|-----------------|-----------------|-----------------|
D|-----------------|-9-9-9-9---------|-----------------|-----------------|
A|---------7-7-7-7-|---------7-7-7-7-|-2---2---0-2-0-3-|---3-3-3-3-3-3-3-|
E|-0-0-0-0---------|-----------------|-----------------|-----------------|
   1 + 2 + 3 + 4 +   1 + 2 + 3 + 4 +   1 + 2 + 3 + 4 +   1 + 2 + 3 + 4 +      

G|-----------------|-----------------|-----------------|-----------------|
D|-----------------|-----------------|-----------------|-----------------|
A|-----------------|-----------------|-2---2---0-2-0-3-|---3-3-3-3-3-3-3-|
E|-0---0-0-0-0-0-0-|-0-0-0-0-0-0-0-0-|-----------------|-----------------|
   1 + 2 + 3 + 4 +   1 + 2 + 3 + 4 +   1 + 2 + 3 + 4 +   1 + 2 + 3 + 4 +      

G|-----------------|-----------------|-----------------|-----------------|
D|-----------------|-----------------|-----------------|-----------------|
A|-5-5-5-5-5-5-5-5-|-5-5-5-5-5-5-5-5-|-3-3-3-3-3-3-3-3-|-2-2-2-2-2-2-2-2-|
E|-----------------|-----------------|-----------------|-----------------|
   1 + 2 + 3 + 4 +   1 + 2 + 3 + 4 +   1 + 2 + 3 + 4 +   1 + 2 + 3 + 4 +      

VERSE

G|-----------------|-----------------|-----------------|-----------------|
D|-----------------|-----------------|-----------------|-----------------|
A|-----------------|-----------------|-2---2---0-2-0-3-|---3-3-3-3-3-3-3-|
E|-0---0-----------|-----------------|-----------------|-----------------|
   1 + 2 + 3 + 4 +   1 + 2 + 3 + 4 +   1 + 2 + 3 + 4 +   1 + 2 + 3 + 4 +      

G|-----------------|-----------------|-----------------|-----------------|
D|-----------------|-----------------|-----------------|-----------------|
A|-----------------|-----------------|-2---2---0-2-0-3-|---3-3-3-3-3-3-3-|
E|-0---0-----------|-----------------|-----------------|-----------------|
   1 + 2 + 3 + 4 +   1 + 2 + 3 + 4 +   1 + 2 + 3 + 4 +   1 + 2 + 3 + 4 +      

G|-----------------|-9-9-------------|-----------------|-----------------|
D|---------9-9-----|---------9-9-7-7-|-----------------|-----------------|
A|-------------7-7-|-----7-7---------|-2---2---0-2-0-3-|---3-3-3-3-3-3-3-|
E|-0-0-0-0---------|-----------------|-----------------|-----------------|
   1 + 2 + 3 + 4 +   1 + 2 + 3 + 4 +   1 + 2 + 3 + 4 +   1 + 2 + 3 + 4 +      

G|-----------------|-----------------|-----------------|-----------------|
D|---------7-7-----|---------7-7-----|-----------------|-----------------|
A|-5-5-5-5-----5-5-|-5-5-5-5-----5-5-|-3-3-3-3-3-3-3-3-|-2-2-2-2-2-2-2-2-|
E|-----------------|-----------------|-----------------|-----------------|
   1 + 2 + 3 + 4 +   1 + 2 + 3 + 4 +   1 + 2 + 3 + 4 +   1 + 2 + 3 + 4 +      

G|-----------------|-----------------|-----------------|-----------------|
D|-----------------|-----------------|-----------------|-----------------|
A|-----------------|-----------------|-2---2---0-2-0-3-|---3-3-3-3-3-3-3-|
E|-0---0-----------|-----------------|-----------------|-----------------|
   1 + 2 + 3 + 4 +   1 + 2 + 3 + 4 +   1 + 2 + 3 + 4 +   1 + 2 + 3 + 4 +      

G|-----------------|-9-9-9-9---------|-----------------|-----------------|
D|-----------------|-----------------|-----------------|-----------------|
A|---------7-7-7-7-|---------7\------|-2---2---0-2-0-3-|---3-3-3-3-3-3-3-|
E|-0-0-0-0---------|-----------------|-----------------|-----------------|
   1 + 2 + 3 + 4 +   1 + 2 + 3 + 4 +   1 + 2 + 3 + 4 +   1 + 2 + 3 + 4 +      

G|-----------------|-9-9-------------|-----------------|-----------------|
D|---------9-9-----|---------9-9-7-7-|-----------------|-----------------|
A|-------------7-7-|-----7-7---------|-2---2---0-2-0-3-|---3-3-3-3-3-3-3-|
E|-0-0-0-0---------|-----------------|-----------------|-----------------|
   1 + 2 + 3 + 4 +   1 + 2 + 3 + 4 +   1 + 2 + 3 + 4 +   1 + 2 + 3 + 4 +      

G|-----------------|-----------------|-----------------|-----------------|
D|---------7-7-----|-----------------|-----------------|-----------------|
A|-5-5-5-5-----5-5-|-5-5-5-5-5-5-5-5-|-3-3-3-3-3-3-3-3-|-2-2-2-2-2-2-2-2-|
E|-----------------|-----------------|-----------------|-----------------|
   1 + 2 + 3 + 4 +   1 + 2 + 3 + 4 +   1 + 2 + 3 + 4 +   1 + 2 + 3 + 4 +      

CHORUS

G|-----------------|-----------------|-----------------|-----------------|
D|-----------------|-----------------|-----------------|-----------------|
A|-----------------|-----------------|-5-5-5-5-5-5-5-5-|-3-3-3-3-3-3-3-3-|
E|-3-3-3-3-3-3-3-3-|-2-2-2-2-2-2-2-2-|-----------------|-----------------|
   1 + 2 + 3 + 4 +   1 + 2 + 3 + 4 +   1 + 2 + 3 + 4 +   1 + 2 + 3 + 4 +      

G|-----------------|-----------------|-----------------|-----------------|
D|-----------------|-----------------|-----------------|-----------------|
A|-----------------|-----------------|-5-5-5-5-5-5-5-5-|-3-3-3-3-3-3-3-3-|
E|-3-3-3-3-3-3-3-3-|-2-2-2-2-2-2-2-2-|-----------------|-----------------|
   1 + 2 + 3 + 4 +   1 + 2 + 3 + 4 +   1 + 2 + 3 + 4 +   1 + 2 + 3 + 4 +      

G|---------7-7-----|-----4-5-7-5-4---|-----------------|-----------------|
D|-5-5-5-5-----5-5-|-4-4-----------4-|---------7-7-----|-----------------|
A|-----------------|-----------------|-5-5-5-5-----5-5-|-3-3-3-3-3-3-3-3-|
E|-----------------|-----------------|-----------------|-----------------|
   1 + 2 + 3 + 4 +   1 + 2 + 3 + 4 +   1 + 2 + 3 + 4 +   1 + 2 + 3 + 4 +      

G|-----------------|-----------------|-----------------|-----------------|
D|-----------------|-----------------|-----------------|-----------------|
A|-5-5-5-5-5-5-5-5-|-5-5-5-5-5-5-5-5-|-3-3-3-3-3-3-3-3-|-3-3-3-3-3-3-3-3-|
E|-----------------|-----------------|-----------------|-----------------|
   1 + 2 + 3 + 4 +   1 + 2 + 3 + 4 +   1 + 2 + 3 + 4 +   1 + 2 + 3 + 4 +      

G|-----------------|-----------------|-----------------|-----------------|
D|---------7-7-7-7-|---------7-7-----|-----------------|-----------------|
A|-5-5-5-5—--------|-5-5-5-5-----5-5-|-3-3-3-3-3-3-3-3-|-2-2-2-2-2-2-2-2-|
E|-----------------|-----------------|-----------------|-----------------|
   1 + 2 + 3 + 4 +   1 + 2 + 3 + 4 +   1 + 2 + 3 + 4 +   1 + 2 + 3 + 4 +      

INTERLUDE

G|-----------------|-----------------|-----------------|-----------------|
D|-----------------|-----------------|-----------------|-----------------|
A|-----------------|-----------------|-2---2---0-2-0-3-|---3-3-3-3-3-3-3-|
E|-0---0-0-0-0-0-0-|-0-0-0-0-0-0-0-0-|-----------------|-----------------|
   1 + 2 + 3 + 4 +   1 + 2 + 3 + 4 +   1 + 2 + 3 + 4 +   1 + 2 + 3 + 4 +      

G|-----------------|-----------------|-----------------|-----------------|
D|-----------------|-----------------|-----------------|-----------------|
A|---------7-7-7-7-|---------7-5-7-5-|-2---2---0-2-0-3-|---3-3-3-3-3-3-3-|
E|-0-0-0-0---------|-0-0-0-0---------|-----------------|-----------------|
   1 + 2 + 3 + 4 +   1 + 2 + 3 + 4 +   1 + 2 + 3 + 4 +   1 + 2 + 3 + 4 +      

VERSE

G|-----------------|-----------------|-----------------|-----------------|
D|-----------------|-----------------|-----------------|-----------------|
A|-----------------|-----------------|-2---2---0-2-0-3-|---3-3-3-3-3-3-3-|
E|-0---0---0-0-0-0-|-0---0---0-0-0-0-|-----------------|-----------------|
   1 + 2 + 3 + 4 +   1 + 2 + 3 + 4 +   1 + 2 + 3 + 4 +   1 + 2 + 3 + 4 +      

G|-----------------|-9-9-9-9---------|-----------------|-----------------|
D|-----------------|-----------------|-----------------|-----------------|
A|---------7-7-7-7-|---------7\------|-2---2---0-2-0-3-|---3-3-3-3-3-3-3-|
E|-0-0-0-0---------|-----------------|-----------------|-----------------|
   1 + 2 + 3 + 4 +   1 + 2 + 3 + 4 +   1 + 2 + 3 + 4 +   1 + 2 + 3 + 4 +      

G|-----------------|-9-9-------------|-----------------|-----------------|
D|---------9-9-----|---------9-9-7-7-|-----------------|-----------------|
A|-------------7-7-|-----7-7---------|-2---2---0-2-0-3-|---3-3-3-3-3-3-3-|
E|-0-0-0-0---------|-----------------|-----------------|-----------------|
   1 + 2 + 3 + 4 +   1 + 2 + 3 + 4 +   1 + 2 + 3 + 4 +   1 + 2 + 3 + 4 +      

G|-----------------|-----------------|-----------------|-----------------|
D|-----------------|-----------------|-----------------|-----------------|
A|-5-5-5-5-5-5-5-5-|-5-5-5-5-5-5-5-5-|-3-3-3-3-3-3-3-3-|-2-2-2-2-2-2-2-2-|
E|-----------------|-----------------|-----------------|-----------------|
   1 + 2 + 3 + 4 +   1 + 2 + 3 + 4 +   1 + 2 + 3 + 4 +   1 + 2 + 3 + 4 +      

CHORUS

G|-----------------|-----------------|-----------------|-----------------|
D|-----------------|-----------------|-----------------|-----------------|
A|-----------------|-----------------|-5-5-5-5-5-5-5-5-|-3-3-3-3-3-3-3-3-|
E|-3-3-3-3-3-3-3-3-|-2-2-2-2-2-2-2-2-|-----------------|-----------------|
   1 + 2 + 3 + 4 +   1 + 2 + 3 + 4 +   1 + 2 + 3 + 4 +   1 + 2 + 3 + 4 +      

G|-----------------|-----------------|-----------------|-----------------|
D|-----------------|-----------------|-----------------|-----------------|
A|-----------------|-----------------|-5-5-5-5-5-5-5-5-|-3-3-3-3-3-3-3-3-|
E|-3-3-3-3-3-3-3-3-|-2-2-2-2-2-2-2-2-|-----------------|-----------------|
   1 + 2 + 3 + 4 +   1 + 2 + 3 + 4 +   1 + 2 + 3 + 4 +   1 + 2 + 3 + 4 +      

G|---------7-7-----|-----4-5-7-5-4---|-----------------|-----------------|
D|-5-5-5-5-----5-5-|-4-4-----------4-|---------7-7-----|-----------------|
A|-----------------|-----------------|-5-5-5-5-----5-5-|-3-3-2-2-3-3-2-2-|
E|-----------------|-----------------|-----------------|-----------------|
   1 + 2 + 3 + 4 +   1 + 2 + 3 + 4 +   1 + 2 + 3 + 4 +   1 + 2 + 3 + 4 +      

G|-----------------|-----------------|-----------------|-----------------|
D|-----------------|-----------------|-----------------|-----------------|
A|-5-5-5-5-5-5-5-5-|-5-5-5-5-5-5-5-5-|-3-3-3-3-3-3-3-3-|-2-2-2-2-2-2-2-2-|
E|-----------------|-----------------|-----------------|-----------------|
   1 + 2 + 3 + 4 +   1 + 2 + 3 + 4 +   1 + 2 + 3 + 4 +   1 + 2 + 3 + 4 +      

BRIDGE

G|-----------------|-----------------|-----------------|-----------------|
D|-----------------|-----------------|-----------------|-----------------|
A|-----------------|-----------------|-----------------|-5-5-5-5-5-5-5-5-|
E|-0-0-0-0-0-0-0-0-|-0-0-0-0-0-0-0-0-|-3---3-3-3-3-3-3-|-----------------|
   1 + 2 + 3 + 4 +   1 + 2 + 3 + 4 +   1 + 2 + 3 + 4 +   1 + 2 + 3 + 4 +      
G|-----------------|-----------------|-----------------|-----------------|
D|-----------------|-----------------|-----------------|-----------------|
A|-----------------|-----------------|-----------------|-5-5-5-5-5-5-5-5-|
E|-0-0-0-0-0-0-0-0-|-0-0-0-0-0-0-0-0-|-3---3-3-3-3-3-3-|-----------------|
   1 + 2 + 3 + 4 +   1 + 2 + 3 + 4 +   1 + 2 + 3 + 4 +   1 + 2 + 3 + 4 +      

G|-----------------|-----------------|-----------------|-----------------|
D|-----------------|-----------------|-5---5-5-5-5-5-5-|-----------------|
A|-----------------|-----------------|-----------------|-5-5-5-5-5-5-7-7-|
E|-0-0-0-0-0-0-0-0-|-0-0-0-0-0-0-0-0-|-----------------|-----------------|
   1 + 2 + 3 + 4 +   1 + 2 + 3 + 4 +   1 + 2 + 3 + 4 +   1 + 2 + 3 + 4 +      

G|-----------------|-----------------|-----------------|-----------------|
D|-----------------|-----------------|-----------------|-----------------|
A|-----------------|-----------------|-----------------|-5-5-5-5-5-5-5-5-|
E|-0-0-0-0-0-0-0-0-|-0-0-0-0-0-0-0-0-|-3---3-3-3-3-3-3-|-----------------|
   1 + 2 + 3 + 4 +   1 + 2 + 3 + 4 +   1 + 2 + 3 + 4 +   1 + 2 + 3 + 4 +      

G|-----------------|-----------------|-----------------|-----------------|
D|-----------------|-----------------|-----------------|-----------------|
A|-----------------|-----------------|-5-5-5-5-5-5-5-5-|-3-3-3-3-3-3-3-3-|
E|-3-3-3-3-3-3-3-3-|-2-2-2-2-2-2-2-2-|-----------------|-----------------|
   1 + 2 + 3 + 4 +   1 + 2 + 3 + 4 +   1 + 2 + 3 + 4 +   1 + 2 + 3 + 4 +      

G|-----------------|-----------------|-----------------|-----------------|
D|-----------------|-----------------|-----------------|-----------------|
A|-----------------|-----------------|-5-5-5-5-5-5-5-5-|-3-3-2-2-3-3-2-2-|
E|-3-3-3-3-3-3-3-3-|-2-2-2-2-2-2-2-2-|-----------------|-----------------|
   1 + 2 + 3 + 4 +   1 + 2 + 3 + 4 +   1 + 2 + 3 + 4 +   1 + 2 + 3 + 4 +      

G|---------7-7-----|-----4-5-7-5-4---|-----------------|-----------------|
D|-5-5-5-5-----5-5-|-4-4-----------4-|---------7-7-----|-----------------|
A|-----------------|-----------------|-5-5-5-5-----5-5-|-3-3-2-2-3-3-2-2-|
E|-----------------|-----------------|-----------------|-----------------|
   1 + 2 + 3 + 4 +   1 + 2 + 3 + 4 +   1 + 2 + 3 + 4 +   1 + 2 + 3 + 4 +      

G|-----------------|-----------------|-----------------|-----------------|
D|-----------------|-----------------|-----------------|-----------------|
A|-5-5-5-5-5-5-5-5-|-5-5-5-5-5-5-5-5-|-3-3-3-3-3-3-3-3-|-2-2-2-2-2-2-2-2-|
E|-----------------|-----------------|-----------------|-----------------|
   1 + 2 + 3 + 4 +   1 + 2 + 3 + 4 +   1 + 2 + 3 + 4 +   1 + 2 + 3 + 4 +      

G|-----------------|
D|-----------------|
A|-----------------|
E|-3---------------|
   1 + 2 + 3 + 4 +   
comments
We did not receive enough feedback on this tab! Please rate:
print report bad tab
1 2 3 4 5
I want to post or [tab]
guest
You may want to rate the tab now too:
select rating
Please do not post tabs as comments. Select "correction" instead!