Oops, an error
Loading. Please wait.

Mercy Me Tab

version 5
version 5
1,076 views 1 this week
3 commentsread comments
1 2 3 4 5
x 3
add to favorites
launch autoscroll
font size
0
reset
how to read this tab
guitar tuner
×
Best way to learn
"Mercy Me"
Autoscroll
slow
fast
+/-
esc
set tempo
stop
Author
Difficulty
This is, in my opinion, alkaline trio's best song so far.
I've seen some of the other tabs and to be honest
THEY'RE SHITE!!! 
So I did my best for you guys. Check it out

Intro
e|-----------------------------------------------------------|
B|-6-6-7-7-9-9-6-6-7-7-9-9-6-6-7-7-6-6-7-7-9-9-6-6-7-7-9-7-6-|
G|-7-7-7-7-7-7-7-7-7-7-7-7-7-7-7-7-7-7-7-7-7-7-7-7-7-7-7-7-7-|
D|-0-0-0-0-0-0-0-0-0-0-0-0-0-0-0-0-0-0-0-0-0-0-0-0-0-0-0-0-0-|x2
A|-----------------------------------------------------------|
E|-----------------------------------------------------------|

Verse one
e|-----------------------------------------------------|
B|-----------------------------------------------------|
G|-----2-----2-----2-----2-----2-----2-----2-----4-4-4-|
D|-2-2---2-2---2-2---2-2---2-2---2-2---2-2---2-2-x-x-x-|x4
A|-0-0---0-0---0-0---0-0---0-0---0-0---0-0---0-0-2-2-2-|
E|-----------------------------------------------------|
PM . .   . .   . .   . .   . .   . .   . .   . .

e|----------------------------------------------------------|
B|----------------------------------------------------------|
G|-----2-----2-----2-----2--6-6-7-7-6-6-9-9-7-7-6-6-4-4-6-6-|
D|-2-2---2-2---2-2---2-2----x-x-x-x-x-x-x-x-x-x-x-x-x-x-x-x-|
A|-0-0---0-0---0-0---0-0----4-4-5-5-4-4-7-7-5-5-4-4-2-2-4-4-|
E|----------------------------------------------------------|
PM . .   . .   . .   . .   . .   . .   . .   . .

Verse two
e|-----------------------------------------------------|
B|-----------------------------------------------------|
G|-----2-----2-----2-----2-----2-----2-----2-----4-4-4-|
D|-2-2---2-2---2-2---2-2---2-2---2-2---2-2---2-2-x-x-x-|
A|-0-0---0-0---0-0---0-0---0-0---0-0---0-0---0-0-2-2-2-|
E|-----------------------------------------------------|
PM . .   . .   . .   . .   . .   . .   . .   . .

e|----------------------------------------------------------|
B|----------------------------------------------------------|
G|-----2-----2-----2-----2--6-6-7-7-6-6-9-9-7-7-6-6-4-4-6-6-|
D|-2-2---2-2---2-2---2-2----x-x-x-x-x-x-x-x-x-x-x-x-x-x-x-x-|
A|-0-0---0-0---0-0---0-0----4-4-5-5-4-4-7-7-5-5-4-4-2-2-4-4-|
E|----------------------------------------------------------|
PM . .   . .   . .   . .   . .   . .   . .   . .

Chorus
e|--------------------------------------------------------------------|
B|------------------3-3-3-3-3-3-3-3-----------------------------------|
G|------------------2-2-2-2-2-2-2-2--2-2-2-2-2-2-2-2--9-9-9-9-9-9-9-9-|
D|-4-4-4-4-4-4-4-4--0-0-0-0-0-0-0-0--2-2-2-2-2-2-2-2--9-9-9-9-9-9-9-9-|x2
A|-4-4-4-4-4-4-4-4-------------------0-0-0-0-0-0-0-0--7-7-7-7-7-7-7-7-|
E|-2-2-2-2-2-2-2-2----------------------------------------------------|

e|-------------------------------------|
B|-------------------------------------|
G|-11-11-11-11-9-9-9-9-7-7-7-7-7-7-7-7-|
D|-11-11-11-11-9-9-9-9-7-7-7-7-7-7-7-7-|x2
A|-9--9--9--9--7-7-7-7-5-5-5-5-5-5-5-5-|
E|-------------------------------------|

e|-------------------------------------|
B|-------------------------------------|
G|-11-11-11-11-9-9-9-9-7-7-7-7-9-9-9-9-|
D|-11-11-11-11-9-9-9-9-7-7-7-7-9-9-9-9-|
A|-9--9--9--9--7-7-7-7-5-5-5-5-7-7-7-7-|
E|-------------------------------------|

Final part of chorus
e|---------------------------------------------------------------------|
B|---------------------------------------------------------------------|
G|-2-2-2-2-2-2-2-2-2-2-2-2-9-9-9-9-2-2-2-2-2-2-2-2-2-2-2-2-7-7-6-6-4-4-|
D|-2-2-2-2-2-2-2-2-2-2-2-2-x-x-x-x-2-2-2-2-2-2-2-2-2-2-2-2-x-x-x-x-x-x-|
A|-0-0-0-0-0-0-0-0-0-0-0-0-7-7-7-7-0-0-0-0-0-0-0-0-0-0-0-0-5-5-4-4-2-2-|
E|---------------------------------------------------------------------|

Verse three
e|--------------------------------------------------------------------------|
B|--------------------------------------------------------------------------|
G|-2~--4-4-4-2~--4-4-4------2-----2-----2-----2-----2-----2-----2-----4-4-4-|
D|-2~--x-x-x-2~--x-x-x--2-2---2-2---2-2---2-2---2-2---2-2---2-2---2-2-x-x-x-|
A|-0~--2-2-2-0~--2-2-2--0-0---0-0---0-0---0-0---0-0---0-0---0-0---0-0-2-2-2-|
E|--------------------------------------------------------------------------|
PM                      . .   . .   . .   . .   . .   . .   . .   . .   

outro
e|-----------------------------------------------------------------|
B|-----------------------------------------------------------------|
G|-2-2-2-2-2-2-2-2-2-2-2-2-9-9-9-9-2-2-2-2-2-2-2-2-2-2-2-2-9-9-9-9-|
D|-2-2-2-2-2-2-2-2-2-2-2-2-x-x-x-x-2-2-2-2-2-2-2-2-2-2-2-2-x-x-x-x-|
A|-0-0-0-0-0-0-0-0-0-0-0-0-7-7-7-7-0-0-0-0-0-0-0-0-0-0-0-0-7-7-7-7-|
E|-----------------------------------------------------------------|

e|
B|--------------------------------------|
G|-2-2-2-2-2-2-2-2-7-7-6-6-4-4----------|
D|-2-2-2-2-2-2-2-2-x-x-x-x-x-x--7-7-7/--|
A|-0-0-0-0-0-0-0-0-5-5-4-4-2-2--7-7-7/--|
E|------------------------------5-5-5/0-|
                                  ^
                       this part is played quite fast
                       together so if you have trouble 
                            just play it once.

This should be accurate and well-rated.
If this doesn't go through I will be very cheesed off.

BIGDAVEDUDE182
P.S Rock on my fellow children


Suggest correction
Give kudos to tab author, rate the tab!
1 2 3 4 5
comments
print report bad tab
3 comments total.
0 reply
Matt Skiba 289 Nov 30, 2005 01:27 AM

sounds the same but its not played that way live.
but yeah not bad

0 reply
xtrioxcore 31 Dec 02, 2005 09:10 AM

the intro is deffinitly wrong and the verses are wrong..and the chorus

0 reply
live_and_burn 79 Dec 12, 2005 10:01 AM

nnnnnope. the intro is the only one on this site that IS correct.

guest
You may want to rate the tab now too:
select rating
Wanna post a correction for this tab? Suggest correction