Oops, an error
Loading. Please wait.

Metro Bass Tab

version 1
version 1

Whole song

Interactive

2,953 views 6 this week
5 commentsread comments
1 2 3 4 5
excellent!
x 3
add to favorites
launch autoscroll
font size
0
reset
guitar tuner
Autoscroll
slow
fast
+/-
esc
set tempo
stop
Help us to improve Ultimate-Guitar.com Take our survey!
×
Author
8455157 212
                             ALKALINE TRIO - METRO

Tuning:GDAE

G|--------------------------------|
D|--------------------------------|
A|-2222222222222-222222222222222--|
E|--------------------------------|

G|--------------------------|
D|--------------------------|
A|----22-------55-00-33-22--| x12
E|-00----22-33--------------|

G|-----------------------------------|
D|-----------------------------------|
A|---------22222222--------55555555--|
E|-55555555--------33333333----------|

G|-----------------------------------|
D|-----------------------------------|
A|---------22222222------------------|
E|-55555555--------3333333322223333--|

G|-----------------------------------|
D|-----------------------------------|
A|---------22222222--------55555555--|
E|-55555555--------33333333----------|

G|--------------------------------------------------------|
D|--------------------------------------------------------|
A|---------22222222----2222222222222222-2222222222222222--|
E|-55555555--------3333----------------3------------------|

G|--------------------------|
D|--------------------------|
A|----22-------55-00-33-22--| x12
E|-00----22-33--------------| 

G|-----------------------------------|
D|-----------------------------------|
A|---------22222222--------55555555--|
E|-55555555--------33333333----------|

G|-----------------------------------|
D|-----------------------------------|
A|---------22222222------------------|
E|-55555555--------3333333322223333--|

G|-----------------------------------|
D|-----------------------------------|
A|---------22222222--------55555555--|
E|-55555555--------33333333----------|

G|---------------------------------------|
D|---------------------------------------|
A|---------22222222----2222222222222222--|
E|-55555555--------3333------------------|

G|--------------------------|
D|--------------------------|
A|----22-------55-00-33-22--| x12
E|-00----22-33--------------| 

G|-----------------------------------|
D|-----------------------------------|
A|---------22222222--------55555555--|
E|-55555555--------33333333----------|

G|-----------------------------------|
D|-----------------------------------|
A|---------22222222------------------|
E|-55555555--------3333333322223333--|

G|-----------------------------------|
D|-----------------------------------|
A|---------22222222--------55555555--|
E|-55555555--------33333333----------|

G|---------------------------------|
D|---------------------------------|
A|---------22222222----22222222-2~-|
E|-55555555--------3333------------|


HOPE THIS WORKS FOR YOU. 
Suggest correction
What's this?
You can suggest a correction to this tab. Community and Mods will review your correction and vote to approve or reject it.
comments
We did not receive enough feedback on this tab! Please rate:
print report bad tab
1 2 3 4 5
5 comments total. Showing first comments.
0 reply
Pretty.Vacant 12 wrote on March 28 2008, 11:12 pm

awesome thanks

+1 reply
CaptainJack666 1,186 wrote on July 10 2008, 02:44 pm

ur the guy that tabbed interlude by muse that i messaged u about lol, great tab

0 reply
chrisjenks 2,378 wrote on August 6 2008, 05:46 am

good job

guest
You may want to rate the tab now too:
select rating
Please do not post tabs as comments. Select "correction" instead!