Oops, an error
Loading. Please wait.

Metro Tab

version 1
version 1

Whole song

Interactive

2,737 views 3 this week
1 commentread comment
1 2 3 4 5
1 last vote to show rating
add to favorites
launch autoscroll
font size
0
reset
how to read this tab
guitar tuner
Autoscroll
slow
fast
+/-
esc
set tempo
stop
Help us to improve Ultimate-Guitar.com Take our survey!
×
Difficulty
intermediate
-Intro:

B5: d-9-
    a-9-
    e-7-

d-222-4-5-1212-77-1010-99-(x2) d-2~~-

-verse 1: (bass and drums)

-chorus:

 B5     D5      G5    D5                   B5    D5  G5 A5 B5
e-----------------------------            e---------------------|
b-----------------------------            b---------------------|
g--------7-------------7------            g--------7------------|
d-9------7-(X5)-5------7-(X5)- (X3)       d-9------7--5--7--9~~-|
a-9-(x5)-5------5-(X5)-5------            a-9-(x5)-5--5--7--9~~-|
e-7-------------3-------------            e-7---------3--5--7~~-|

-brigde 1: b-17-12-15-10-13-8-10-7---|
           g-----------------------9-| (x2)

-verse 2: (palm mute)

d-222-4-5-1212-77-1010-99-(x2)
p.m...........................

chorus:

 B5     D5      G5    D5                   B5    D5  G5 A5 B5       B5
e-----------------------------            e---------------------------------|
b-----------------------------            b---------------------------------|
g--------7-------------7------            g--------7------------------------|
d-9------7-(X5)-5------7-(X5)- (X3)       d-9------7--5--7--9-------9-------|
a-9-(x5)-5------5-(X5)-5------            a-9-(x5)-5--5--7--9-(x10)-9-(x10--|
e-7-------------3-------------            e-7---------3--5--7-------7-------|

-interlude:(distortion)

e----------------12-----12----9----7---12----9----7---12----19-17-14-16-12~~-|
b-12~~10-12~~12~~---12~~---12---10---8----12---10---8----12------------------|

-chorus:

B5     D5      G5    D5                   B5    D5  G5 A5 B5
e-----------------------------            e---------------------|
b-----------------------------            b---------------------|
g--------7-------------7------            g--------7------------|
d-9------7-(X5)-5------7-(X5)- (X3)       d-9------7--5--7--9~~-|
a-9-(x5)-5------5-(X5)-5------            a-9-(x5)-5--5--7--9~~-|
e-7-------------3-------------            e-7---------3--5--7~~-|

-brigde 2:

b-17-12-15-10-13-8-10-7---|
g-----------------------9-| (x2)

-final chorus:

B5     D5      G5    D5                   B5    D5  G5 A5 B5   B5
e-----------------------------            e-----------------------|
b-----------------------------            b-----------------------|
g--------7-------------7------            g--------7--------------|
d-9------7-(X5)-5------7-(X5)- (X3)       d-9------7--5--7--9~~-9-|
a-9-(x5)-5------5-(X5)-5------            a-9-(x5)-5--5--7--9~~-9-|
e-7-------------3-------------            e-7---------3--5--7~~-7-|

I hope you enjoy this song is pretty easy to catch and if you have any suggestion about 
song mail me kira-landia@hotmail.com.
Suggest correction
Give kudos to tab author, rate the tab!
1 2 3 4 5
comments
print report bad tab
1 comment total.
0 reply
ShaneMcChristy 31 Jan 12, 2010 04:59 PM

It would've been nice if it was a little neater but good job otherwise - 4 stars

guest
You may want to rate the tab now too:
select rating
Wanna post a correction for this tab? Suggest correction