Oops, an error
Loading. Please wait.

My Little Needle Bass Tab

version 1
version 1

Whole song

Interactive

433 views 1 this week
no commentswrite comment
1 2 3 4 5
please rate
add to favorites
launch autoscroll
font size
0
reset
guitar tuner
Autoscroll
slow
fast
+/-
esc
set tempo
stop
Help us to improve Ultimate-Guitar.com Take our survey!
×
Author
*KEY*
h Hammer On
* Ring Out


Intro
G----------------------------------------------------|
D----------------------------------------------------|
A--2222-2222-222-444-666-777-------------------------|
E----------------------------------------------------|

G-------4------4-------------------------------------|
D----------------------------------------------------|
A-222----222----------222-444-666-777----------------|
E----------------------------------------------------|

Then...

End of Intro
G----------------------------------------------------|
D-----------------------7h9-7h9-7h9-7h9--------------|
A-222-444-22222-222-444------------------------------|
E----------------------------------------------------|


Verse 1 x1
G----------------------------------------------------|
D-----------------------7h9-7h9-6--------------------|
A-7777-------x3-777----------------------------------|
E-----555-777-------5--------------------------------|
                                        
G----------------------------------------------------|
D----------------------------------------------------|
A-7777--------x3-------------------------------------|
E-----555-777-----777777777-7*-----------------------|


Chorus x2
G-----------------------------------------------------|
D-----------------------------------------------------|
A-7777-7777-7777--------------------------------------|   
E----------------4444-5555----------------------------|



Intro x2 (w/o ending)


Verse 2
G------------------------------------------------------|
D-----------------------7h9-7h9-6----------------------|
A-7777-------x3-777------------------------------------|
E-----555-777-------5----------------------------------|
                                        
G-------------------9---------9------------------------|
D------------------------------------------------------|
A-7777--------x3-77---777--77--------------------------|
E-----555-777------------------------------------------|


Chorus x2
G------------------------------------------------------|
D------------------------------------------------------|
A-7777-7777-7777---------------------------------------|   
E----------------4444-5555-----------------------------|


Outro
G------------------------------------------------------|
D------------------------------------------------------|
A-77777777777-\6666/-777777----------------------------| x2
E------------------------------------------------------|

G------------------------------------------------------|
D-777-666-444-22222222---------------------------------|
A------------------------------------------------------|
E------------------------------------------------------|

G------------------------------------------------------|
D-777-666-444-222\111/22-------------------------------|
A------------------------------------------------------|
E------------------------------------------------------|

G------------------------------------------------------|
D-777-666-444-22222222---------------------------------|
A------------------------------------------------------|
E------------------------------------------------------|

G------------------------------------------------------|
D-7-6-4-2----7-6-7-9-----------------------------------|
A----------------------7*------------------------------|
E------------------------------------------------------|



The outro is the guitar outro. It still sounds good
Suggest correction
Give kudos to tab author, rate the tab!
1 2 3 4 5
comments
print report bad tab
guest
You may want to rate the tab now too:
select rating
Please do not post tabs as comments. Select "correction" instead!