Oops, an error
Loading. Please wait.

My Little Needle Bass Tab

version 2
version 2

Whole song

Interactive

1,110 views 1 this week
3 commentsread comments
1 2 3 4 5
please rate
add to favorites
launch autoscroll
font size
0
reset
guitar tuner
Autoscroll
slow
fast
+/-
esc
set tempo
stop
Help us to improve Ultimate-Guitar.com Take our survey!
×
Author
bizzles 318
-------------------------------------------------------------------------------
			     MY LITTLE NEEDLE - Alkaline Trio
-------------------------------------------------------------------------------

Tabbed By : Bizzles
e-mail: sandkid6@aol.com

Tuning: Standard


Intro x2
G|----9------------------------------9-----------------------------------------|
D|-----------------------------------------------------------------------------|
A|---------------2222444466667777----------------------------------------------|
E|0000----0000-00----------------0000--0000-00-2222444455557777----------------|

Intro II
G|-----------------------------14h16-14h16-14h16-14h16--|
D|------------------------------------------------------|
A|0-0-0-7\-0-0-0-12\-0-0-0-0-0--------------------------|
E|------------------------------------------------------|

Verse I
G|--------------------------------------------------------------------------------|
D|--------------------------------------------------------------------------------|
A|-----------------/77777777-------------------------/77777777/12-12h14-12h14-12--|
E|0000000055557777----------55557777-0000000055557777-----------------------------|

G|----------------------------------------------------------------|
D|----------------------------------------------------------------|
A|----------------/77777777---------------------------------------|
E|0000000055557777---------55557777-0000777722225555555555555555--|

Chorus:
G|99999--99999--99999--------------------------------------------------------|
D|---------------------------------------------------------------------------|
A|--------------------------------------------------/77777-------------------|
E|---------------------4444444455555555-00000-00000--------4444444455555555--|

Then Intro x2

Verse II (little different)
G|-------------------------------------------------------------------------------|
D|-------------------------------------------------------------------------------|
A|----------------/77777777-------------------------/77777777/12-12h14-12h14-12--|
E|0000000055557777---------55557777-0000000055557777-----------------------------|

G|---------------------------------------------------9-------9--|
D|--------------------------------------------------7-------7---|
A|----------------/77777777---------------------0000----0000----|
E|0000000055557777---------55557777-000055552222----------------|

Then Chorus again

Outrox3
G|----------------------------------------------------------|
D|----------------------------------------------------------|
A|--------7777/1212121212121212\7777p66666666666h777777777--|
E|00000000--------------------------------------------------|

the fourth time play this
G|------------------------------------------------------------------|
D|------------------------------------------------------------------|
A|--------7777/1212121212121212\7777-6-6-6-6---6h7-7-7-7---7~~~~~~--|
E|00000000-----------------------------------------------0----------|


| /  slide up
| \  slide down
| h  hammer-on
| p  pull-off
| ~  let ring
| +  harmonic
| x  Mute note
===============================================================================
Suggest correction new What's this?
You can suggest a correction to this tab. Community and Mods will review your correction and vote to approve or reject it.
comments
We did not receive enough feedback on this tab! Please rate:
print report bad tab
1 2 3 4 5
3 comments total.
0 reply
spiff-corgi 2,496 wrote on September 23 2007, 01:46 pm

argh sorry mate. didn't realise you'd already tabbed this. and our tabs are virtually the same, except i think yours is better. sorry. i didn't copy your tab though.

0 reply
spiff-corgi 2,496 wrote on September 23 2007, 01:48 pm

ah no it's ok. mine's a bit different.

0 reply
metalman135 125 wrote on December 24 2010, 10:47 am

Outrox3
G|----------------------------------------------------------------|
D|----------------------------------------------------------------|
A|-------222222/77777777\222222-00000000000000002222222222222222--|
E|00000000--------------------------------------------------------|

the fourth time play this
G|--------------------------------------------------|
D|--------------------------------------------------|
A|-------222222/77777777\222222-0-0-00-2-2-22---7~--|
E|00000000------------------------------------0-----|


Good tab, but this outro sounds more right to me.

guest
You may want to rate the tab now too:
select rating
Please do not post tabs as comments. Select "correction" instead!