Oops, an error
Loading. Please wait.

My Little Needle Tab

version 2
version 2

Whole song

Interactive

1,437 views 3 this week
no commentswrite comment
1 2 3 4 5
please rate
add to favorites
launch autoscroll
font size
0
reset
how to read this tab
guitar tuner
Tab Pro tools
  • play this tab
  • loop segment
  • change instrument
  • show fretboard
  • metronome
×
Best way to learn
"My Little Needle"
Autoscroll
slow
fast
+/-
esc
set tempo
stop
Contributor
ALKALINE TRIO
MY LITTLE NEEDLE
GODDAMNIT

I made some changes to the other tab on this site i think this is perfect, for 
and suggestions email me at e_mericana@hotmail.com

INTRO
----------------------------------------|
----------------------------------------|
---------------4-4/6-6/8-8/9-9----------|
-2-2-2-2--2-2--x-x-x-x-x-x-x-x----------|
-2-2-2-2--2-2--2-2/4-4/6-6/7-7----------|
-0-0-0-0--0-0---------------------------|

----------------------------------------|
INTRO
----------------------------------------|
----------------------------------------|
-2-2-2-2--2-2--4-4/6-6/7-7/9-9----------|
-2-2-2-2--2-2--x-x-x-x-x-x-x-x----------|
-0-0-0-0--0-0--2-2/4-4/5-5/7-7----------|


PRE VERSE
----------------------------------------|
----------------------------------------|
-9-----------------------11-------------|
-9-7-6-4-2-7-6-4-2-7-6-7--9-------------|
-7-0-0-0-0-0-0-0-0-0-0-0----------------|
----------------------------------------|


VERSE
----------------------------------------|
----------------------------------------|
-9--------------------------------------|
-9---------7----------9-----------------|
-7---------7----------9-----------------|
-----------5----------7-----------------|


PRE CHORUS
and beg change.....
----------------------------------------|
----------------------------------------|
-9--------------------------------------|
-9-6-7-2--------------------------------|
-7-0-0-0--------------------------------|
----------------------------------------|


CHORUS
-----------------------------------------------------|
-----------------------------------------------------|
-9-9-9---9-9-9---9-9-9---9-9-9-----------------------|
-x-x-x---x-x-x---x-x-x---x-x-x---6-6-6-6---7-7-7-7---|
-7-7-7---7-7-7---7-7-7---7-7-7---6-6-6-6---7-7-7-7---|
---------------------------------4-4-4-4---5-5-5-5---|

-----------------------------------------------------|
-----------------------------------------------------|
-9-9-9---9-9-9---9-9-9---8-9-9-----------------------|
-x-x-x---x-x-x---x-x-x---x-x-x---6-6-6-6---7-7-7-7---|
-7-7-7---7-7-7---7-7-7---6-7-7---6-6-6-6---7-7-7-7---|
---------------------------------4-4-4-4---5-5-5-5---|

INTRO

VERSE

PRE CHORUS

CHORUS

BRIDGE
------------------------------------------------|
------------------------------------------------|
-9-9-9-9-9-9-9-9-9-9-9-9\9-8-8-8/9-9-9-9-9-9----|
-x-x-x-x-x-x-x-x-x-x-x-x-x-x-x-x-x-x-x-x-x-x----|
-7-7-7-7-7-7-7-7-7-7-7-7\6-6-6-6/7-7-7-7-7-7----|
------------------------------------------------|

------------------------------------------------|
------------------------------------------------|
-9-9-9-9-9-9-9-9-9-9-9-9\8-8-8-9/9-9-9-9-9-9----|
-x-x-x-x-x-x-x-x-x-x-x-x-x-x-x-x-x-x-x-x-x-x----|
comments
We did not receive enough feedback on this tab! Please rate:
print report bad tab
1 2 3 4 5
I want to post or [tab]
guest
You may want to rate the tab now too:
select rating
Please do not post tabs as comments. Select "correction" instead!