Oops, an error
Loading. Please wait.

My Standard Break From Life Chords

version 1
version 1

Acoustic

Whole song

Interactive

7,260 views 21 this week
no commentswrite comment
1 2 3 4 5
excellent!
x 11
add to favorites
launch autoscroll
font size
0
reset
transpose
0
reset
display chords
guitar tuner
Tab Pro tools
  • play this tab
  • loop segment
  • change instrument
  • show fretboard
  • metronome
×
Best way to learn
"My Standard Break From Life"
Autoscroll
slow
fast
+/-
esc
set tempo
stop
Contributor
Alkaline Trio - My Standart Break From Life Acoustic  
Arranged/Tabbed By Billys Lioutas

Tuning: Standard

Tone: E

Chords:

E   (022100)
A   (002220)
B   (x24442)
C#m (x46654)



           E
I've got a regular problem
      A                              E      B  E
So my standard break from life is in order
           E
I'm having trouble making sentences
    A                         E      B  E
I'm older but I don't feel any smarter
          A
You see I don't know what I said to you
    B
And now you're pissed at you know who
    E            A
And I guess I deserve it
               E                     B                E
I wish I could waste my time without wasting all your time
         E
I try to leave a good impression
         A                             E     B  E
But it's hard when my obsession's in a wine glass
                E
And when you're only 23
         A                                 E     B  E
It's not attractive to complain about your sore back
          A
Yes I can bitch until my eyes are blue
    B
And you're in bed with someone new
    E              A
And I guess you deserve him
             E                     B                E         A
Wish I could waste my time without wasting all your time
A           B
You say I'm fixable
  E             C#m
A classic case, lack of will
A
I say I don't wanna try
           B
I'd rather stay here all night


e|-000----------------|
B|-000---------2------|
G|-111---1--4----4----|  x3   
D|-222----------------|
A|-222----------------|
E|-000----------------|


e|-222----000---------|
B|-444----222---------|
G|-444----222---------|
D|-444----222---------|
A|-222----000---------|
E|-xxx----000---------|


e|-000----------------|
B|-000---------2------|
G|-111---1--4----4----|  x3   
D|-222----------------|
A|-222----------------|
E|-000----------------|


e|-22222---|
B|-44444---|
G|-44444---|
D|-44444---|
A|-22222---|
E|-xxxxx---|


           E
I've got a motivation problem
      A                                   E     B  E
So my standard break from life is getting longer
           E
Spent over 30 hours in this bed
   A                            E     B  E
In two days, I guess I could've phoned her
             A
But now that I'm awake
                  B
I'd rather take a drink
B
And walk down to the lake
    E               A
And beg the sky for lightning bolts
        E                     B                E        A
I can't waste my time without wasting all your time
             B
You say it's fixable
  E             C#m
A classic case, lack of will
A
I say I don't wanna try
           B
I'd rather sit here all night



e|-000----------------|
B|-000---------2------|
G|-111---1--4----4----|  x3   
D|-222----------------|
A|-222----------------|
E|-000----------------|


e|-222----000---------|
B|-444----222---------|
G|-444----222---------|
D|-444----222---------|
A|-222----000---------|
E|-xxx----000---------|


e|-000----------------|
B|-000---------2------|
G|-111---1--4----4----|  x3   
D|-222----------------|
A|-222----------------|
E|-000----------------|


e|-22222---|
B|-44444---|
G|-44444---|
D|-44444---|
A|-22222---|
E|-xxxxx---|


I hope you like!!!!
Best regards Billys Lioutas!!! :D :D
comments
print report bad tab
I want to post or [tab]
guest
You may want to rate the tab now too:
select rating
Please do not post tabs as comments. Select "correction" instead!