Oops, an error
Loading. Please wait.

Nose Over Tail Bass Tab

version 3
version 3

Whole song

Interactive

2,310 views 3 this week
no commentswrite comment
1 2 3 4 5
please rate
add to favorites
launch autoscroll
font size
0
reset
guitar tuner
Tab Pro tools
  • play this tab
  • loop segment
  • change instrument
  • show fretboard
  • metronome
×
Best way to learn
"Nose Over Tail"
Autoscroll
slow
fast
+/-
esc
set tempo
stop
Contributor
Difficulty
novice
Song: Nose Over Tail
Artist: Alkaline Trio
Album: Goddamnit

Verse
"Cracked my head open on you kitchen floor..."
G|-------|-------|-------|----9--|-------|-------|-------|----------------|
D|-------|-------|-------|--9---9|-------|-------|-------|----------------|
A|2-2-2-2|-------|2-2-2-2|7------|2-2-2-2|-------|2-2-2-2|----------------|
E|-------|0-0-0-0|-------|-------|-------|0-0-0-0|-------|0000000000000000|

Chorus-y bit 
|----------------|----------------|-----R-1414-R-|1414-R-1414-R|
|----------------|----------------|-----R-1414-R-|1414-R-1414-R|
|4444444444444444|4444444466667777|0--0-R-1212-R-|1111-R-1212-R|
|----------------|----------------|--------------|-------------|

|----------------|----------------|------------|-----------|
|----------------|----------------|------------|-----------|
|4444444444444444|4444444466667777|0-0-R-------|2~---------|
|----------------|----------------|------4-4-R-|-----------|

Interlude type thing
|----------------|------------------|------------|---------------|
|----------------|------------------|---------4--|---------------|
|----------------|222222222222222222|4--4-4-2---2|00000000-2-0---| X2
|0000000000000000|------------------|------------|--------------4|

Pre-verse
|----------------|9999999999999999|----------------|9--8--9-11-9-8-|
|----------------|----------------|----------------|---------------|
|2222222222222222|----------------|2222222222222222|---------------|
|----------------|----------------|----------------|---------------|

Verse
"Whatever happened to...?"                     "I'd love to rub your back!"
|----------------|----------------|----------------|----------------------|
|----------------|----------------|----------------|----------------------|
|2222222222222222|----------------|2222222222222222|----------------------|
|----------------|0000000000000000|----------------|0R--------------------|

|----------------|----------------|----------------|----------------|
|----------------|----------------|----------------|----------------|
|2222222222222222|----------------|2222222222222222|----------------|
|----------------|0000000000000000|----------------|0000000000000000|

Chorus
|----------------|----------------|-----R-1414-R-|1414-R-1414-R|
|----------------|----------------|-----R-1414-R-|1414-R-1414-R|
|4444444444444444|4444444466667777|0--0-R-1212-R-|1111-R-1212-R|
|----------------|----------------|--------------|-------------|

|----------------|----------------|------------|-----------|
|----------------|----------------|------------|-----------|
|4444444444444444|4444444466667777|0-0-R-------|2~---------|
|----------------|----------------|------4-4-R-|-----------|

Instrumental part
|----------|8~--------|----------|8~--------|
|----------|8~--------|----------|8~--------|
|----------|6~--------|----------|6~--------|
|0~--------|----------|0~--------|----------|

|---------------|----------------|----------------|----------------|
|---------------|----8888--------|----------------|----------------|
|---------------|6666----66666h76|----------------|6666666666666666|
|000000000000000|----------------|0000000000000000|----------------|

|----9999----9999|----------------|
|7777----7777----|----------------|
|----------------|----------------| X2
|----------------|2222222222222222|

Outro
|----------------|------------------|------------|--------9999999|
|----------------|------------------|---------4--|---------------|
|----------------|222222222222222222|4--4-4-2---2|00000000-------| 
|0000000000000000|------------------|------------|---------------|

|----------------|------------------|------------|---------------|
|----------------|------------------|---------4--|---------------|
|----------------|222222222222222222|4--4-4-2---2|00000000-2-0---| 
|0000000000000000|------------------|------------|--------------4|

|----------------|----------------|------------|----------------|
|----------------|----------------|------------|----------------|
|----------------|2222222222222222|4--4-4-6-6-6|7777777777777777|
|0000000000000000|----------------|------------|----------------|

|----------------|------------------|------------|---------------|
|----------------|------------------|---------4--|---------------|
|----------------|222222222222222222|4--4-4-2---2|00000000-2-0---| 
|0000000000000000|------------------|------------|--------------4|

End on
E|0~-----------------|

Enjoy ;)
comments
We did not receive enough feedback on this tab! Please rate:
print report bad tab
1 2 3 4 5
I want to post or [tab]
guest
You may want to rate the tab now too:
select rating
Please do not post tabs as comments. Select "correction" instead!