Oops, an error
Loading. Please wait.

Off The Map Tab

version 1
version 1

Whole song

Interactive

3,489 views 1 this week
1 commentread comment
1 2 3 4 5
please rate
add to favorites
launch autoscroll
font size
0
reset
how to read this tab
guitar tuner
Autoscroll
slow
fast
+/-
esc
set tempo
stop
Help us to improve Ultimate-Guitar.com Take our survey!
×
Contributor
Off the map - Alkaline Trio - This Addiction - EADGBe

Verse 1 
(I needed more wine..)
e|------------------------------------------------------------------------|
B|------------------------------------------------------------------------|
G|------------------------------------------------------------------------|
D|------------------66666666-44444444-66666666----------------------------|    2x
A|-2222222222222222-00000000-00000000-44444444-66666666-77777777-99999999-|   
E|-0000000000000000----------------------------44444444-55555555-77777777-|
   **************** ***************** ******** ******** ******** *****

(i can ride the storm out...)
e|------------------------------------------------------------------|
B|------------------------------------------------------------------|
G|------------------------------------------------------------------|
D|------------------------------------------------------------------|
A|-77-777-777-777-799-999-999-9666-77-777-777-777-799-999-977779999-|
E|-55-555-555-555-577-777-777-7444-55-555-555-555-577-777-755557777-|

(see i'm so far off the map..)
e|------------------------------------|
B|------------------------------------|
G|------------------------------------|
D|------------------------------------|     2x
A|-77777777-77777777-9999999999999999-|
E|-00000000-55555555-7777777777777777-|
   ******** ******** ****************

e|----------------------------|
B|----------------------------|
G|----------------------------|
D|----------------------------|
A|-77777777-77777777-99999999-|
E|-00000000-55555555-77777777-|
   ******** ******** ********

e|----------------------------------------|
B|----------------------------------------|
G|----------------------------------------|
D|-9999-----------------------------------|
A|-7777-999977777777777799999999999999999-|
E|------777755555555555577777777777777777-|
   **** ************************

Interlude riff
e|----------------------------------------------------------------------------------|
B|----------------------------------------------------------------------------------|
G|----------------------------------------------------------------------------------|
D|-------------999-777-66-444444444444-66-77-66666666-9999------------------------2-|
A|--7777777777-777-777-77-222222222222-44-44-44444444-7777-7777-999999999999-6666-2-|
E|--0000000000---------------------------------------------5555-777777777777-7777-0-|

Verse
e|------------------------------------------------------------------------|
B|------------------------------------------------------------------------|
G|------------------------------------------------------------------------|
D|------------------66666666-44444444-66666666----------------------------|    2x
A|-2222222222222222-00000000-00000000-44444444-66666666-77777777-99999999-|   
E|-0000000000000000----------------------------44444444-55555555-77777777-|
   **************** ***************** ******** ******** ******** *****

e|------------------------------------------------------------------|
B|------------------------------------------------------------------|
G|------------------------------------------------------------------|
D|------------------------------------------------------------------|
A|-77-777-777-777-799-999-999-9666-77-777-777-777-799-999-977779999-|
E|-55-555-555-555-577-777-777-7444-55-555-555-555-577-777-755557777-|

e|------------------------------------|
B|------------------------------------|
G|------------------------------------|
D|------------------------------------|     2x
A|-77777777-77777777-9999999999999999-|
E|-00000000-55555555-7777777777777777-|
   

e|----------------------------|
B|----------------------------|
G|----------------------------|
D|----------------------------|
A|-77777777-77777777-99999999-|
E|-00000000-55555555-77777777-|
   

e|----------------------------------------|
B|----------------------------------------|
G|----------------------------------------|
D|-9999-----------------------------------|
A|-7777-999977777777777799999999999999999-|
E|------777755555555555577777777777777777-|
   


Interlude riff
e|---------------------------------------------------------------------------------|
B|---------------------------------------------------------------------------------|
G|---------------------------------------------------------------------------------|
D|-------------999-777-66-444444444444-66-77-66666666-9999-------------------------|     2x
A|--7777777777-777-777-77-222222222222-44-44-44444444-7777-7777-999999999999-6666--|
E|--0000000000---------------------------------------------5555-777777777777-7777--|

Second guitar optional chords (not 100%, suggestions?) find your own rythym
e|---------------|
B|---------------|
G|---------------|
D|-9-------16-14-|
A|-7-6-7-9-14-12-|
E|---4-5-7-------|
Suggest correction new What's this?
You can suggest a correction to this tab. Community and Mods will review your correction and vote to approve or reject it.
comments
We did not receive enough feedback on this tab! Please rate:
print report bad tab
1 2 3 4 5
1 comment total.
0 reply
Torn_Asunder 1,303 wrote on July 12 2010, 10:37 am

Good tab, except since this is an tab for the original song, and not a chordal arrangement (since the site already has one of these), the interlude would be this:

e|------------------------------------------------------------------
B|------------------------------------------------------------------
G|-9-9-9-9-9-9---16-16-16--14-14-14--13--11-11-11-11-11-11--13--14--
D|-x-x-x-x-x-x---x--x--x---x--x--x---x---x--x--x--x--x--x---x---x---
B|-7-7-7-7-7-7---14-14-14--12-12-12- 11--9--9--9--9--9--9---11--12--
E|------------------------------------------------------------------

------------------------------------------------------------------------------|
------------------------------------------------------------------------------|
-13-13-13-13-13-13--16-16-16--9-9-9--11-11-11-11-11-11--8-8-8--9--------------|
-x--x--x--x--x--x---x--x--x---x-x-x--x--x--x--x--x--x---x-x-x--9--------------|
-11-11-11-11-11-11--14-14-14--7-7-7--9--9--9--9--9--9---6-6-6--7--------------|
---------------------------------------------------------------0--------------|

guest
You may want to rate the tab now too:
select rating
Please do not post tabs as comments. Select "correction" instead!