Oops, an error
Loading. Please wait.

Old School Reasons Bass Tab

version 2
version 2

Whole song

604 views 1 this week
no commentswrite comment
1 2 3 4 5
please rate
add to favorites
launch autoscroll
font size
0
reset
guitar tuner
Autoscroll
slow
fast
+/-
esc
set tempo
stop
Help us to improve Ultimate-Guitar.com Take our survey!
×
Difficulty
intermediate
Tabbed by: lazerlionz
Email: dalex174@yahoo.com

One of my favorites, and really fun to play and sing...i took the base of the song from 
other tabs, but some spots were wrong. This sounds exactly right to me.
Please Rate!

G|------------------|
D|------------------|
A|----55---55-------| X2
E|--5----0----------|

G|--------------------------------------------|
D|--------------------------------------------|
A|-------5555------5555-----------------------|
E|--5555------0000-------55555555--00000000---|

G|-------------------------------------------|
D|-------------------------------------------|
A|------------55555555------------55555555---|x4
E|--55555555------------00000000-------------|

G|--------------------------------------------------|
D|--------------------------------------------------|
A|--------5555--------5555--------------------5555--|
E|--5555--------0000--------5555--0000--2222--------|

G|-------------------------------------------|
D|-------------------------------------------|
A|------------55555555------------55555555---|x4
E|--55555555------------00000000-------------|

G|---------------------------------------|
D|---------------------------------------|
A|-------------------44444444--55555555--|
E|--5555555555555555---------------------|

G|----------------------------------------------|
D|----------------------------------------------|
A|--------------------------------5555--7777----|
E|--55555555--44444444--55555555----------------|

G|--------------------------------------------------|
D|--------------------------------------------------|
A|--------5555--------5555--------------------5555--|
E|--5555--------0000--------5555--0000--2222--------|

G|----------------------|
D|----------------------|
A|-------555-------555--|x2 (on the second time, add (3) more 5's to the end)
E|--555-------000-------|

G|-------------------------------------------|
D|-------------------------------------------|
A|------------55555555------------55555555---|x2
E|--55555555------------00000000-------------|

G|---------------------------------------|
D|---------------------------------------|
A|-------------------44444444--55555555--|
E|--5555555555555555---------------------|

G|----------------------------------------------|
D|----------------------------------------------|
A|--------------------------------5555--7777----|
E|--55555555--44444444--55555555----------------|

G|---------------------------------------|
D|---------------------------------------|
A|-------------------44444444--55555555--|
E|--5555555555555555---------------------|

G|----------------------------------------------|
D|----------------------------------------------|
A|--------------------------------5555--7777----|
E|--55555555--44444444--55555555----------------|

G|--------------------------------------------------|
D|--------------------------------------------------|
A|--------5555--------5555--------------------5555--|x2
E|--5555--------0000--------5555--0000--2222--------|

G|----------------------------------------------|
D|----------------------------------------------|
A|--44444444444444444--555555555555-------------|
E|----------------------------------------------|

G|----------------------------------------------|
D|----------------------------------------------|
A|--44444444444444444--555555555555\------------|
E|----------------------------------------------|

G|---------------------------------------|
D|---------------------------------------|
A|-------------------44444444--55555555--|
E|--5555555555555555---------------------|

G|----------------------------------------------|
D|----------------------------------------------|
A|--------------------------------5555--7777----|
E|--55555555--44444444--55555555----------------|


G|--------------------------------------------------|
D|--------------------------------------------------|
A|--------5555--------5555--------------------5555--|
E|--5555--------0000--------5555--0000--2222--------|

G|-------------------|
D|-------------------|
A|----55----5-4-2-0--|
E|--5----0-----------|
Suggest correction
Give kudos to tab author, rate the tab!
1 2 3 4 5
comments
print report bad tab
guest
You may want to rate the tab now too:
select rating
Wanna post a correction for this tab? Suggest correction