Oops, an error
Loading. Please wait.

Over And Out Bass Tab

version 1
version 1

Whole song

Interactive

9,157 views 6 this week
5 commentsread comments
1 2 3 4 5
excellent!
x 11
add to favorites
launch autoscroll
font size
0
reset
guitar tuner
Autoscroll
slow
fast
+/-
esc
set tempo
stop
Help us to improve Ultimate-Guitar.com Take our survey!
×
Author
Over and Out
Alkaline Trio
Bass Tab

Intro 

G|-----------------|-----------------|-----------------|-----------------|
D|-----11--11--11--|-----9---9---9h11|-----11--11--11--|-----9---9---9h11|
A|-0-0---0---0---0-|-0-0---0---0-----|-0-0---0---0---0-|-0-0---0---0-----|
E|-----------------|-----------------|-----------------|-----------------|
   1 + 2 + 3 + 4 +   1 + 2 + 3 + 4 +   1 + 2 + 3 + 4 +   1 + 2 + 3 + 4 +

 
G|-----------------|-----------------|-----------------|-----------------|
D|-7-7-7-7-7-7-7-7-|-1414141412111111|-------------2--/|/9-------7p6-----|
A|-0-0-0-0-0-0-0-0-|-0-0-0-0-0-0-0-0-|-----------------|-------------9p7-|
E|-----------------|-----------------|-0-0-0-0-0-0-----|-----------------|
   1 + 2 + 3 + 4 +   1 + 2 + 3 + 4 +   1 + 2 + 3 + 4 +   1 + 2 + 3 + 4 +


G|-----------------|-----------------|-----------------|-----------------|
D|-----------------|-----------------|---------7-------|-7---------------|
A|-------------4--/|/9---------------|-5-5-5-5-----5---|-----------------|
E|-2-2-2-2-2-2-----|-----------------|-----------------|-----------------|
   1 + 2 + 3 + 4 +   1 + 2 + 3 + 4 +   1 + 2 + 3 + 4 +   1 + 2 + 3 + 4 +

G|-----------------|
D|-----------------|
A|-----------------|
E|-----------------|
   1 + 2 + 3 + 4 +  

1st Verse -		“Over and out,” she said, from a hospital bed
			"For what it’s worth it doesn’t hurt, don’t cry.”
			“Over and out,” he said, with a .45 to his head
			“The war has taken everything from me, it’s all I see so…”

G|---------14------|-----------------|-----------------|-----------------|
D|-----11------11--|-14----12----11--|-9---9---9---7---|-6---6---6---7\--|
A|-0---------------|-----0-----0---0-|-----------------|-----------------|
E|-----------------|-----------------|---0---0---0---0-|---0---0---0---0-|
   1 + 2 + 3 + 4 +   1 + 2 + 3 + 4 +   1 + 2 + 3 + 4 +   1 + 2 + 3 + 4 +


G|-----------------|-----------------|-----------------|-----------------|
D|-----------------|-----------------|---------7-7-----|-----------------|
A|-----0-----------|-----0---------4-|-5-5-5-5-5-5---4-|-5-5-5-5-5-5-5-5-|
E|-2-2---2-2-2---0-|-2-2---2-2-2-----|-----------------|-----------------|
   1 + 2 + 3 + 4 +   1 + 2 + 3 + 4 +   1 + 2 + 3 + 4 +   1 + 2 + 3 + 4 +


G|---------14------|-----------------|-----------------|-----------------|
D|-----11------11--|-14----12----11--|-9---9---9---7---|-6---6---6---7\--|
A|-0---------------|-----0-----0---0-|-----------------|-----------------|
E|-----------------|-----------------|---0---0---0---0-|---0---0---0---0-|
   1 + 2 + 3 + 4 +   1 + 2 + 3 + 4 +   1 + 2 + 3 + 4 +   1 + 2 + 3 + 4 +


G|-----------------|-----------------|-----------------|-----------------|
D|-----------------|-----------------|---------7-7-----|-----------------|
A|-----0-----------|-----0---------4-|-5-5-5-5-5-5---4-|-5---------------|
E|-2-2---2-2-2---0-|-2-2---2-2-2-----|-----------------|-----------------|
   1 + 2 + 3 + 4 +   1 + 2 + 3 + 4 +   1 + 2 + 3 + 4 +   1 + 2 + 3 + 4 +


Chorus - 	Run for cover as fast as you can
		Where fighters are lovers, enemies are friends
		And pens and knives apologize for leaving you tonight
 
G|-----------------|-----------------|-----------------|-----------------|
D|-----------------|-----------------|-----------------|-----------------|
A|-0-0-0-0-0-0-0-0-|-0-0-0-0-0-0-0-0-|-----------------|-----------------|
E|-----------------|-----------------|-0-0-0-0-0-0-0-0-|-0-0-0-0-0-0-0-0-|
   1 + 2 + 3 + 4 +   1 + 2 + 3 + 4 +   1 + 2 + 3 + 4 +   1 + 2 + 3 + 4 +


G|-----------------|-----------------|-----------------|-----------------|
D|-----------------|-----------------|-----------------|-----------------|
A|-----------------|-----------------|-5-5-5-5-5-5-5-5-|-5-5-5-5-5-5-5-5-|
E|-2-2-2-2-2-2-2-2-|-2-2-2-2-2-2-2-2-|-----------------|-----------------|
   1 + 2 + 3 + 4 +   1 + 2 + 3 + 4 +   1 + 2 + 3 + 4 +   1 + 2 + 3 + 4 +

Interlude

G|---------14------|-----------------|-----------------|-----------------|
D|-----11------11--|-14----12----11--|-9---9---9---7---|-6---6---6---7\--|
A|-0---------------|-----0-----0---0-|-----------------|-----------------|
E|-----------------|-----------------|---0---0---0---0-|---0---0---0---0-|
   1 + 2 + 3 + 4 +   1 + 2 + 3 + 4 +   1 + 2 + 3 + 4 +   1 + 2 + 3 + 4 +


G|-----------------|-----------------|---------7-------|-7-------7-------|
D|---------4-------|-----7---117---7-|-----7-------7---|-----7-----------|
A|-----0-------0-0-|/9-9---9-----9---|-5-5---5---5---5-|---5---5---------|
E|-2-2---2---2-----|-----------------|-----------------|-----------------|
   1 + 2 + 3 + 4 +   1 + 2 + 3 + 4 +   1 + 2 + 3 + 4 +   1 + 2 + 3 + 4 +


2nd Verse - 	“Over and out,” he sighed, “it seems I’ve run out of time.
			Please tell my wife I loved her more than life itself.”
			"Over and out,” she sang, as the telephone rang
			“There’s no pain, no answering no more.”

G|---------14------|-----------------|-----------------|-----------------|
D|-----11------11--|-14----12----11--|-9---9---9---7---|-6---6---6---7\--|
A|-0---------------|-----0-----0---0-|-----------------|-----------------|
E|-----------------|-----------------|---0---0---0---0-|---0---0---0---0-|
   1 + 2 + 3 + 4 +   1 + 2 + 3 + 4 +   1 + 2 + 3 + 4 +   1 + 2 + 3 + 4 +


G|-----------------|-----------------|-----------------|-----------------|
D|-----------------|-----------------|---------7-7-----|-----------------|
A|-----0-----------|-----0---------4-|-5-5-5-5-5-5-2-4-|-5-5-5-5-5-5-5-5-|
E|-2-2---2-2-2---0-|-2-2---2-2-2-----|-----------------|-----------------|
   1 + 2 + 3 + 4 +   1 + 2 + 3 + 4 +   1 + 2 + 3 + 4 +   1 + 2 + 3 + 4 +

G|---------14------|-----------------|-----------------|-----------------|
D|-----11------11--|-14----12----11--|-9---9---9---7---|-6---6---6---7\--|
A|-0---------------|-----0-----0---0-|-----------------|-----------------|
E|-----------------|-----------------|---0---0---0---0-|---0---0---0---0-|
   1 + 2 + 3 + 4 +   1 + 2 + 3 + 4 +   1 + 2 + 3 + 4 +   1 + 2 + 3 + 4 +


G|-----------------|-----------------|-----------------|-----------------|
D|-----------------|-----------------|---------7-7-----|-----------------|
A|-----0-----------|-----0---------4-|-5-5-5-5-5-5---4-|-5-5-5-5-5-5-5-5-|
E|-2-2---2-2-2---0-|-2-2---2-2-2-----|-----------------|-----------------|
   1 + 2 + 3 + 4 +   1 + 2 + 3 + 4 +   1 + 2 + 3 + 4 +   1 + 2 + 3 + 4 + 

Chorus - 	Run for cover as fast as you can
		Where fighters are lovers, enemies are friends
		And pens and knives apologize for leaving you tonight
		Run for cover and you’ll find us there
		To take on the anguish, make it disappear
		When hand grenades and napalm flames are leaving you tonight

G|-----------------|-----------------|-----------------|-----------------|
D|-----------------|-----------------|-----------------|---------9-7-6---|
A|-0-0-0-0-0-0-0-0-|-0-0-0-0-0-0-0-0-|-----------------|-7-7-7-7-------7-|
E|-----------------|-----------------|-0-0-0-0-0-0-0-0-|-----------------|
   1 + 2 + 3 + 4 +   1 + 2 + 3 + 4 +   1 + 2 + 3 + 4 +   1 + 2 + 3 + 4 +


G|-----------------|-----------------|-----------------|-----------------|
D|-----------------|-----------------|-----------------|-----------------|
A|-----------------|/9-9-9-0---------|-5-5-5-5-5-5-5-5-|-5-5-5-5-5-5-5-5-|
E|-2-2-2-2-2-2-2-2-|---------2-2-2-0-|-----------------|-----------------|
   1 + 2 + 3 + 4 +   1 + 2 + 3 + 4 +   1 + 2 + 3 + 4 +   1 + 2 + 3 + 4 +

             
G|-----------------|-----------------|-----------------|-----------------|
D|-----------------|-----------------|-----------------|-----------------|
A|-0-0-0-0-0-0-0-0-|-0-0-0-0-0-0-0-0-|-----------------|-----------------|
E|-----------------|-----------------|-4-4-4-4-4-4-4-4-|-4-4-4-4-4-4-4-0-|
   1 + 2 + 3 + 4 +   1 + 2 + 3 + 4 +   1 + 2 + 3 + 4 +   1 + 2 + 3 + 4 +


G|-----------------|-----------------|-----------------|-----------------|
D|-----------------|-----------------|-----------------|-----------------|
A|-----------------|-----------------|-5-5-5-5-5-5-5-5-|-5-5-5-5-5-5-5-5-|
E|-2-2-2-2-2-2-2-2-|-2-2-2-2-2-2-2-0-|-----------------|-----------------|
   1 + 2 + 3 + 4 +   1 + 2 + 3 + 4 +   1 + 2 + 3 + 4 +   1 + 2 + 3 + 4 +


Bridge - 	Let this candle burn ‘til you get home
		Never forget your face, never lose hope
		Tonight…


G|-----------------|-----------------|-----------------|-----------------|
D|-------4-4-4---7-|-7-7---2-2-2-2---|-----------------|-----------------|
A|-7-7-------------|---------------4-|-5-5-5-5-5-5-5-5-|-5-5-5-5-5-5-5-5-|
E|-----------------|-----------------|-----------------|-----------------|
   1 + 2 + 3 + 4 +   1 + 2 + 3 + 4 +   1 + 2 + 3 + 4 +   1 + 2 + 3 + 4 +


G|-----------------|-----------------|-----------------|-----------------|
D|-----------------|-----------------|-----------------|-----------------|
A|-----------------|-----------------|-5-5-5-5-5-5-5-5-|-5-5-5-5-5-5-5-5-|
E|-----------------|-----------------|-----------------|-----------------|
   1 + 2 + 3 + 4 +   1 + 2 + 3 + 4 +   1 + 2 + 3 + 4 +   1 + 2 + 3 + 4 +


G|-----------------|-----------------|-----------------|-----------------|
D|-----------------|-----------------|-----------------|-----------------|
A|-7-7-------------|-------7---7---0-|-5-5-5-5-5-5-5-5-|-5-5-5-5-5-5-----|
E|-------2---2---5-|---5-------------|-----------------|-----------------|
   1 + 2 + 3 + 4 +   1 + 2 + 3 + 4 +   1 + 2 + 3 + 4 +   1 + 2 + 3 + 4 +


Chorus - 	Run for cover as fast as you can
		Where fighters are lovers, enemies are friends
		And pens and knives apologize for leaving you tonight
		Run for cover and you’ll find us there
To take on the anger, make it disappear
When razor blades softly serenading you…

G|-----------------|-----------------|-----------------|-----------------|
D|-----------------|-----------------|-----------------|-9---9---7---6---|
A|-0-0-0-0-0-0-0-0-|-0-0-0-0-0-0-0-0-|-----------------|-----------------|
E|-----------------|-----------------|-0-0-0-0-0-0-0-0-|---0---0---0---0-|
   1 + 2 + 3 + 4 +   1 + 2 + 3 + 4 +   1 + 2 + 3 + 4 +   1 + 2 + 3 + 4 +


G|-----------------|-----------------|-----------------|-----------------|
D|-----------------|-----------------|-----------------|-----------------|
A|-----------------|-----------------|-5-5-5-5-5-5-5-5-|-5-5-5-5-5-5-5-5-|
E|-2-2-2-2-2-2-2-2-|-2-2-2-2-2-2-2-0-|-----------------|-----------------|
   1 + 2 + 3 + 4 +   1 + 2 + 3 + 4 +   1 + 2 + 3 + 4 +   1 + 2 + 3 + 4 +

             
G|-----------------|-----------------|-----------------|-----------------|
D|-----------------|-----------------|-----------------|-----------------|
A|-0-0-0-0-0-0-0-0-|-0-0-0-0-0-0-0-0-|-----------------|-----------------|
E|-----------------|-----------------|-4-4-4-4-4-4-4-4-|-4-4-4-4-4-4-4-0-|
   1 + 2 + 3 + 4 +   1 + 2 + 3 + 4 +   1 + 2 + 3 + 4 +   1 + 2 + 3 + 4 +


G|-----------------|-----------------|-----------------|-----------------|
D|-----------------|-----------------|-----------------|-----------------|
A|-----------------|-101010101010100-|-5-5-5-5-5-5-5-5-|-5---------------|
E|-3-3-3-3-3-3-3-3-|-----------------|-----------------|-----------------|
   1 + 2 + 3 + 4 +   1 + 2 + 3 + 4 +   1 + 2 + 3 + 4 +   1 + 2 + 3 + 4 +
Suggest correction new What's this?
You can suggest a correction to this tab. Community and Mods will review your correction and vote to approve or reject it.
comments
print report bad tab
5 comments total. Showing first comments.
+1 reply
chrisjenks 2,376 wrote on July 2 2008, 06:08 pm

good job mate, it's a cracking bass line isn't it...i had this tab on half but you got in there first.lol

+1 reply
spiff-corgi 2,496 wrote on July 22 2008, 08:20 am

well yeah it was bitchy to make fun of the intro.
the rest of it's dead on, except you play bits on different strings to me.
soz eh

+1 reply
CaptainJack666 1,186 wrote on August 16 2008, 05:59 pm

amazing bassline to a brilliant song, well done A+

guest
You may want to rate the tab now too:
select rating
Please do not post tabs as comments. Select "correction" instead!