Oops, an error
Loading. Please wait.

Over And Out Tab

version 2
version 2

Whole song

Interactive

1,026 views 3 this week
1 commentread comment
1 2 3 4 5
please rate
add to favorites
launch autoscroll
font size
0
reset
how to read this tab
guitar tuner
Tab Pro tools
  • play this tab
  • loop segment
  • change instrument
  • show fretboard
  • metronome
×
Best way to learn
"Over And Out"
Autoscroll
slow
fast
+/-
esc
set tempo
stop
Contributor
Difficulty
-------------------------------------------------------------------------------
                             Over And Out - Alkaline Trio
-------------------------------------------------------------------------------
Tabbed by: Alex Emry
Email: alexemry@hotmail.com

Tuning: Standard E (EADGBe)
/ = Slide
* = Harmonic
x = Mute
Beginning:
   * * * * * * *  *  *  * * *
e|-9-9-9-8-8-8-11-11-11-8-8-8-----------------------------------------|
B|--------------------------------------------------------------------|
G|--------------------------------------------------------------------|
D|--------------------------------------------------------------------|
A|--------------------------------------------------------------------|
E|--------------------------------------------------------------------|
Intro: (part 1)
e|--------------------------------------------------------------------|
B|--------------------------------------------------------------------|
G|-6/7---9---9-----4--4--7---7--7--6---6--6---------------------------|
D|-x/x---x---x-----x--x--x---x--x--x---x--x---------------------------|
A|-4/5---7---7-----2--2--5---5--5--4---4--4---------------------------|
E|--------------------------------------------------------------------|
Intro: (part 2)
e|--------------------------------------------------------------------------|
B|--------------------------------------------------------------------------|
G|-6/7--7--7--7\6---6--6--6\4---4\3--3--3---6/7---9---9----4--4--7----------|
D|-x/x--x--x--x\x---x--x--x\x---x\x--x--x---x/x---x---x----x--x--x----------|
A|-4/5--5--5--5\4---4--4--4\2---2\1--1--3---4/5---7---7----2--2--5----------|
E|--------------------------------------------------------------------------|
Chorus:
  Run  for  cover,  as  fast  as  you  can
e|--------------------------------------------------------------------|
B|--------------------------------------------------------------------|
G|-6--6--6--6--6--6--6--6--6--6--6--6--6--6--6------------------------|
D|-6--6--6--6--6--6--6--6--6--6--6--6--6--6--6------------------------|
A|-4--4--4--4--4--4--4--4--4--4--4--4--4--4--4------------------------|
E|--------------------------------------------------------------------|
  Fighters  are  lovers,  enemies  are  friends
e|---------------------------------------------------------------------------|
B|---------------------------------------------------------------------------|
G|---------------------------------------------------------------------------|
D|-4--4--4--4--4--4--4--4--4--4--4--4--4--4--4-------------------------------|
A|-4--4--4--4--4--4--4--4--4--4--4--4--4--4--4-------------------------------|
E|-2--2--2--2--2--2--2--2--2--2--2--2--2--2--2-------------------------------|
  Pens    and   knives  apologize   for   leaving   you   tonight
e|-------------------------------------------------------------------------|
B|-------------------------------------------------------------------------|
G|-------------------------------------------------------------------------|
D|-6--6--6--6--6--6--6--6--6--6--6--6--6--6--6--6--6--6--6--6--6--6--------|
A|-6--6--6--6--6--6--6--6--6--6--6--6--6--6--6--6--6--6--6--6--6--6--------|
E|-4--4--4--4--4--4--4--4--4--4--4--4--4--4--4--4--4--4--4--4--4--4--------|

Bridge:
   Let this   candle burn,    til you get home
e|--------------------------------------------------------------------|
B|--------------------------------------------------------------------|
G|-6--6--6--6--6--6--6--6--6--6--6--6--6--6--6------------------------|
D|-6--6--6--6--6--6--6--6--6--6--6--6--6--6--6------------------------|
A|-4--4--4--4--4--4--4--4--4--4--4--4--4--4--4------------------------|
E|--------------------------------------------------------------------|

e|---------------------------------------------------------------------|
B|---------------------------------------------------------------------|
G|----------7---7-7-----------8----------------------------------------|
D|-6---6-6--7---7-7--7---7-7--8----------------------------------------|
A|-6---6-6--5---5-5--7---7-7--6----------------------------------------|
E|-4---4-4-----------5---5-5-------------------------------------------|
   Tonight___________________________________
e|----------------------------------------------------------------------|
B|----------------------------------------------------------------------|
G|-9--9--9--9--9--9--9--9--9--9--9--9--9--9-----------------------------|
D|-9--9--9--9--9--9--9--9--9--9--9--9--9--9-----------------------------|
A|-7--7--7--7--7--7--7--7--7--7--7--7--7--7-----------------------------|
E|----------------------------------------------------------------------|

End on:
e|---------|
B|---------|
G|---6-----|
D|---6-----|
A|---4-----|
E|---0-----|
comments
We did not receive enough feedback on this tab! Please rate:
print report bad tab
1 2 3 4 5
1 comment total.
0 reply
smartin6988 wrote on June 15 2010, 12:59 am

sorry but this is completely wrong. i think you should tune your guitar and try again. nice try tho

I want to post or [tab]
guest
You may want to rate the tab now too:
select rating
Please do not post tabs as comments. Select "correction" instead!