Oops, an error
Loading. Please wait.

Over And Out Tab

version 3
version 3

Whole song

Interactive

2,752 views 21 this week
no commentswrite comment
1 2 3 4 5
3 more votes to show rating
add to favorites
launch autoscroll
font size
0
reset
how to read this tab
guitar tuner
Autoscroll
slow
fast
+/-
esc
set tempo
stop
Help us to improve Ultimate-Guitar.com Take our survey!
×
Author
Difficulty
novice
Tuning: Standard
Key: A

. = palm mute
/ = slide 

Intro 1: (piano arranged for guitar)
e|-9-9-9-7-7-7-10-10-|-10-9-9-9-9-9-9-9-|
B|-------------------|------------------|
G|-------------------|------------------| x2
D|-------------------|------------------|
A|-------------------|------------------|
E|-------------------|------------------|


Intro 2:
e|------------------|------------------|------------------|---------------------|
B|------------------|------------------|------------------|---------------------|
G|------------------|------------------|------------------|---------------------| -Sorry for the 
D|---0-2-2-2-2/7-7--|-7-7-7-7-7-7-7-7--|---0-2-2-2-2/9-9--|-9-9-9-9-9-12-12-12--|  uneven spacing
A|-4----------------|------------------|-4----------------|---------------------|
E|------------------|------------------|------------------|---------------------|



e|----------------------|------------------|-----------------|----------------|
B|----------------------|------------------|-----------------|----------------|
G|----------------------|------------------|-----------------|----------------|
D|-12-11-11-11-11-9-9-9-|-9-7-7-7-7-6-6-7--|7-7-7-7-7-7-7-7--|-7--------------|
A|----------------------|------------------|-----------------|----------------|
E|----------------------|------------------|-----------------|----------------|


Verse: 
e|-----------------|-----------------|-----------------|-----------------|
B|-----------------|-----------------|-----------------|-----------------|
G|-222222222222222-|-222222222222222-|-222222222222222-|-22222222--------|   -This part is very
D|-...............-|-...............-|-...............-|-.......0--------|    subtle and kind of
A|-----------------|-----------------|-----------------|-----------------|      hard to hear
E|-----------------|-----------------|-----------------|-----------------|
               "Over and out, He said, With a .45 to his head, 
       The war has taken everything from me, It's all I've seen, so..."


Chorus 1:
e|-----------------|-----------------|-----------------|-----------------|
B|-----------------|-----------------|-----------------|-----------------|
G|-2-2-2-2-2-2-2-2-|-----------------|-----------------|-7-7-7-7-7-7-7-7-|
D|-2-2-2-2-2-2-2-2-|-2-2-2-2-2-2-2-2-|-4-4-4-4-4-4-4-4-|-7-7-7-7-7-7-7-7-|
A|-0-0-0-0-0-0-0-0-|-2-2-2-2-2-2-2-2-|-4-4-4-4-4-4-4-4-|-5-5-5-5-5-5-5-5-|
E|-----------------|-0-0-0-0-0-0-0-0-|-2-2-2-2-2-2-2-2-|-----------------|
"Run for cover as fast as you can, Where fighters are lovers, enemies are friends,
                 Pens and knives apologize for leaving you"
   

Verse 2:
e|-----------------|-----------------|-----------------|-----------------|
B|-----------------|-----------------|-----------------|-----------------|
G|-222222222222222-|-222222222222222-|-222222222222222-|-22222222--------|
D|-...............-|-...............-|-...............-|-.......0--------|
A|-----------------|-----------------|-----------------|-----------------|
E|-----------------|-----------------|-----------------|-----------------|
              "Over and out, She sang, As the telephone rang, 
            There's no pain no answering no more, no, so..."


Chorus 2:
e|-----------------|-----------------|-----------------|-----------------|
B|-----------------|-----------------|-----------------|-----------------|
G|-2-2-2-2-2-2-2-2-|-----------------|-----------------|-7-7-7-7-7-7-7-7-|
D|-2-2-2-2-2-2-2-2-|-2-2-2-2-2-2-2-2-|-4-4-4-4-4-4-4-4-|-7-7-7-7-7-7-7-7-|
A|-0-0-0-0-0-0-0-0-|-2-2-2-2-2-2-2-2-|-4-4-4-4-4-4-4-4-|-5-5-5-5-5-5-5-5-|
E|-----------------|-0-0-0-0-0-0-0-0-|-2-2-2-2-2-2-2-2-|-----------------|
"Run for cover as fast as you can, Where fighters are lovers, enemies are friends,
                 Pens and knives apologize for leaving you"

e|-----------------|-----------------|-----------------|-----------------|
B|-----------------|-----------------|-----------------|-----------------|
G|-----------------|-----------------|-----------------|-7-7-7-7-7-7-7-7-|
D|-7-7-7-7-7-7-7-7-|-6-6-6-6-6-6-6-6-|-4-4-4-4-4-4-4-4-|-7-7-7-7-7-7-7-7-|
A|-7-7-7-7-7-7-7-7-|-7-7-7-7-7-7-7-7-|-4-4-4-4-4-4-4-4-|-5-5-5-5-5-5-5-5-|
E|-5-5-5-5-5-5-5-5-|-4-4-4-4-4-4-4-4-|-2-2-2-2-2-2-2-2-|-----------------|
"Run for cover and you'll find us there, To take on the anguish make it disappear,
           When hand grenades and Napalm flames are leaving you"


Bridge:
e|-----------------|------------------|-----------------|------------------|
B|-----------------|------------------|-----------------|------------------|
G|-----------------|------------------|-----------------|-7777777777777777-|
D|-----------------|------------------|-----------------|-7777777777777777-|
A|-----------------|------------------|-----------------|-5555555555555555-|
E|-----------------|------------------|-----------------|------------------|
                                                         "Let this candle burn 'til you get home"

e|-----------------|------------------|-----------------|------------------|
B|-----7-7---------|------------------|-----7-7---------|------------------|
G|-9-9-6-6-2-2-9-9-|-7777777777777777-|-9-9-6-6-2-2-9-9-|-7777777777777777-|
D|-9-9-4-4-2-2-9-9-|-7777777777777777-|-9-9-4-4-2-2-9-9-|-7777777777777777-|
A|-7-7-----0-0-7-7-|-5555555555555555-|-7-7-----0-0-7-7-|-5555555555555555-|
E|-----------------|------------------|-----------------|------------------|
                                                         "Never forget your face never lose hope"

e|-----------------|------------------|
B|-----7-7---------|------------------|
G|-9-9-6-6-2-2-9-9-|-7777777777777777-|
D|-9-9-4-4-2-2-9-9-|-7777777777777777-|
A|-7-7-----0-0-7-7-|-5555555555555555-|
E|-----------------|------------------|
                     "Tonight"

Chorus 3:
e|-----------------|-----------------|-----------------|-----------------|
B|-----------------|-----------------|-----------------|-----------------|
G|-2-2-2-2-2-2-2-2-|-----------------|-----------------|-7-7-7-7-7-7-7-7-|
D|-2-2-2-2-2-2-2-2-|-2-2-2-2-2-2-2-2-|-4-4-4-4-4-4-4-4-|-7-7-7-7-7-7-7-7-|
A|-0-0-0-0-0-0-0-0-|-2-2-2-2-2-2-2-2-|-4-4-4-4-4-4-4-4-|-5-5-5-5-5-5-5-5-|
E|-----------------|-0-0-0-0-0-0-0-0-|-2-2-2-2-2-2-2-2-|-----------------|
"Run for cover as fast as you can, Where fighters are lovers, enemies are friends,
                 Pens and knives apologize for leaving you"


e|-----------------|-----------------|-----------------|-----------------|
B|-----------------|-----------------|-----------------|-----------------|
G|-----------------|-----------------|-----------------|-7-7-7-7-7-7-7-7-|
D|-7-7-7-7-7-7-7-7-|-6-6-6-6-6-6-6-6-|-4-4-4-4-4-4-4-4-|-7-7-7-7-7-7-7-7-|
A|-7-7-7-7-7-7-7-7-|-7-7-7-7-7-7-7-7-|-4-4-4-4-4-4-4-4-|-5-5-5-5-5-5-5-5-|
E|-5-5-5-5-5-5-5-5-|-4-4-4-4-4-4-4-4-|-2-2-2-2-2-2-2-2-|-----------------|
"Run for cover and you'll find us there, To take on the anger, make it disappear,
                 Razor blades were softly serenading you..."
Suggest correction
Give kudos to tab author, rate the tab!
1 2 3 4 5
comments
print report bad tab
guest
You may want to rate the tab now too:
select rating
Wanna post a correction for this tab? Suggest correction