Oops, an error
Loading. Please wait.

Over At The Frankenstein Place Bass Tab

739 views 1 this week
1 commentread comment
1 2 3 4 5
please rate
add to favorites
launch autoscroll
font size
0
reset
guitar tuner
Autoscroll
slow
fast
+/-
esc
set tempo
stop
Help us to improve Ultimate-Guitar.com Take our survey!
×
Author
-------------------------------------------------------------------------------
			     OVER AT THE FRANKENSTEIN PLACE - Alkaline Trio
-------------------------------------------------------------------------------

Tabbed By : Alex
e-mail: cromag523@aim.com

Tuning: EADG

I'll tab each part then tell you the order.

INTRO
 
G|-------------------------------------------|
D|-------------------------------------------|
A|-0h7-7-7-7-7-7-7-7-------------------------|
E|-------------------------------------------| X4

VERSE

G|---------------------------------------------------------------------------|
D|---------------------------------------------------------------------------|
A|-0h7-7-7-7-7-7-7-7-0h5-5-5-5-5-5-5-5---------------------------------------|
E|-------------------------------------0h5-5-5-5-5-5-5-5-0h5-5-5-5-5-5-5-5---|

G|---------------------------------------------------------------------------|
D|---------------------------------------------------------------------------|
A|-0h7-7-7-7-7-7-0h7-6-4-4-4-4-4-4-4-4-0h4-4-4-4-4-4-4-4---------------------|
E|-------------------------------------------------------0h2-2-2-2-2-2-2-2---|

G|---------------------------------------------------------------------------|
D|---------------------------------------------------------------------------|
A|-0h2-2-2-2-2-2-2-2-0h2-2-2-2-2-2-2-2---------------------------------------|
E|---------------------------------------------------------------------------|

CHORUS

G|-----------------------------------------------|
D|-----------------------------------------------|
A|-----7-------7-------7-------7-------7---2---3-|
E|-0-0---0-0-0---0-0-0---0-0-0---0-0-0---0-------|

G|---------------------------------------------------------------------------|
D|-----2-------2-------2-------2-------2-------2-------2-------2-------------|
A|-0-0---0-0-0---0-0-0---0-0-0---0-0-0---0-0-0---0-0-0---0-0-0---0-----------|
E|---------------------------------------------------------------------------|

G|---------------------------------------------------------------------------|
D|-----------------------------------------------------4---4---4-------------|
A|-----7-----7--6--4-4---4-4-4---4-----------------2-2---2---2---2-----------|
E|-0-0---0-0-----------4-------4---2-2-2-/14-14-14-14------------------------|


BRIDGE

G|------------9-------------------9--9-------------|
D|-------9-h11-----11-p9-----9-h11-11----11--------|
A|-7---------------------7-------------------------|
E|-------------------------------------------------| X2


G|------------------13-------------------------------------|
D|------------14h16------16-14-11--14h16-14-9-11-9--6-6-4--|
A|-7-------------------------------------------------------|
E|---------------------------------------------------------|


G|----------------------------------------------------------------9-9-9------|
D|--------------------------11------------------------------------7-7-7------|
A|-7---------6---7-6-----11----11---11-----------7-------7-------------------|
E|-------7h9---------9------------9----9--7--5-5---5-5-5---5-5-5-------------|


G|---------------------------------------------------------------------------|
D|---------------------------------------------------------------------------|
A|---------------------------------------------------------------------------|
E|--7-7-7-7-7-7-7-7-7-7-7-7-7-7-7-7-7-7-7-7-7-7-7-7--------------------------|


ORDER OF PARTS:

INTRO
VERSE
CHORUS
BRIDGE
CHORUS

end the final chorus with an open E.

| /  slide up
| \  slide down
| h  hammer-on
| p  pull-off
| ~  vibrato
| +  harmonic
| x  Mute note
===============================================================================
Suggest correction
Give kudos to tab author, rate the tab!
1 2 3 4 5
comments
print report bad tab
1 comment total.
0 reply
kittens9 10 wrote on January 5 2014, 12:52 am

Really good, thanks!

guest
You may want to rate the tab now too:
select rating
Please do not post tabs as comments. Select "correction" instead!