Oops, an error
Loading. Please wait.

Piss And Vinegar Tab

3,728 views 6 this week
no commentswrite comment
1 2 3 4 5
x 3
add to favorites
launch autoscroll
font size
0
reset
how to read this tab
guitar tuner
Autoscroll
slow
fast
+/-
esc
set tempo
stop
Help us to improve Ultimate-Guitar.com Take our survey!
×
Author
Difficulty
novice
-----------------------------------------------------------------
Piss And Vinegar - Alkaline Trio
-----------------------------------------------------------------
Tabbed by: Bair
Email: bair_morritt@hotmail.com

Tuning: Standard

**This is a really simple, catchy tune off of "This Addiction"**

Verse:
e|-----------------------------------------------------------------|
B|-----------------------------------------------------------------|
G|--55-------------55----------------------55----------------------|
D|--55--55--33-33--55--55--33--33--22--33--55--55--33333333-55555--|
A|--33--55--33-33--33--55--33--33--22--33--33--55--33333333-55555--|
E|------33--11-11------33--11--11--00--11------33--11111111-33333--|
"Well, I'm piss and vinegar again, and I hiss and I rattle and shed"

e|-----------------------------------------------------------------|
B|-----------------------------------------------------------------|
G|--55-------------55----------------------55----------------------|
D|--55--55--33-33--55--55--33--33--22--33--55--55--33333333-55555--|
A|--33--55--33-33--33--55--33--33--22--33--33--55--33333333-55555--|
E|------33--11-11------33--11--11--00--11------33--11111111-33333--|
"Well, I'm piss and vinegar again, and I needed this like a new...."

Chorus:
e|------------------------------------------------|
B|------------------------------------------------|
G|--------------5555------------------------------|
D|--7777--3333--5555--5555--(X3)--33333333--5--3--|
A|--7777--3333--3333--5555--------33333333--5--3--|
E|--5555--1111--------3333--------11111111--3--1--|
"With an ache in my heart and a thorn in my...."

Post-Chorus:
                 G1                            G2
e|---------------------------------|-------------------------|
B|---------------------------------|-------------------------|
G|--55--55----------55--55---------|--2-0---2-0--------------|
D|--55--55--55--33--55--55--55--33-|------------3-2-3-2-0----|
A|--33--33--55--33--33--33--55--33-|----------------------3--|
E|----------33--11----------33--11-|-------------------------|

Verse:
e|-----------------------------------------------------------------|
B|-----------------------------------------------------------------|
G|--55-------------55----------------------55----------------------|
D|--55--55--33-33--55--55--33--33--22--33--55--55--33333333-55555--|
A|--33--55--33-33--33--55--33--33--22--33--33--55--33333333-55555--|
E|------33--11-11------33--11--11--00--11------33--11111111-33333--|
"Well I'm piss and vinegar again, Cause I feel like I lost my...."

Chorus:
e|------------------------------------------------|
B|------------------------------------------------|
G|--------------5555------------------------------|
D|--7777--3333--5555--5555--(X3)--33333333--5--3--|
A|--7777--3333--3333--5555--------33333333--5--3--|
E|--5555--1111--------3333--------11111111--3--1--|
"With an ache in my heart and a thorn in my...."

Interlude:
e|------------------------------------------|
B|------------------------------------------|
G|----------------------55555555------------|
D|--77777777--33333333--55555555--55555555--|
A|--77777777--33333333--33333333--55555555--|
E|--55555555--11111111------------33333333--|
"Now this supernatural disaster found me...."

e|--------------------------------------------|
B|--------------------------------------------|
G|--------------------------------------------|
D|--77777777--33333333--55555555--3333--5555--|
A|--77777777--33333333--55555555--3333--5555--|
E|--55555555--11111111--33333333--1111--3333--|
"Now I'm sick with the sight of the plaster"

Post-Chorus:
                 G1                 
e|------------------------------------------------------------------|
B|------------------------------------------------------------------|
G|--55--55----------55--55------------------55----------------------|
D|--55--55--55--33--55--55--55--33--22--33--55--55--33333333--5555--|
A|--33--33--55--33--33--33--55--33--22--33--33--55--33333333--5555--|
E|----------33--11----------33--11--00--11------33--11111111--3333--|

                 G2
e|-----------------------------------|
B|-----------------------------------|
G|--2-0---2-0------------------2-0~--|
D|------------3-2-3-2-0---(X2)-------|
A|----------------------3------------|
E|-----------------------------------|

Chorus:
e|-------------------------------------------------------------|
B|-------------------------------------------------------------|
G|--------------5555------------------------------5------------|
D|--7777--3333--5555--5555--(X3)--33333333--5--3--5-(Let-Ring)-|
A|--7777--3333--3333--5555--------33333333--5--3--3------------|
E|--5555--1111--------3333--------11111111--3--1---------------|
"With an ache in my heart and a thorn in my side, I got no...."

----------------------------------------------------------------------------
Lyrics:

Well I'm piss and vinegar again.
And I hiss and I rattle and shed.
And I encircle you like a piranha school,
As you slowly fight your way to shore.

Well I'm piss and vinegar again,
And I needed this like a new hole in the head.
Hiding out from the drink,
But floating, waiting to sink.
My great white teeth into your sweet bones.

With an ache in my heart and a thorn in my side,
I got no where to run, no place left to hide.
I got a burning sensation like clockwork orange herbacide.
Feels like it's raining all the time.

Well I'm piss and vinegar again.
'Cause I feel like I lost my best friend.
And at the end of the day,
Once it's all down the drain,
I'll be fine.
I'll be fine.

With an ache in my heart and a thorn in my side.
I got no where to run, no place left to hide.
I got a burning sensation like clockwork orange herbacide.
Feels like it's raining all the time.

Now this supernatural disaster, 
Found me quickly but left even faster.
Now I'm sick with the sight of the plaster.
This old familiar feeling is bleeding me dry.

With an ache in my heart and a thorn in my side, 
I got no where to run, no place left to hide.
I got a burning temptation like clockwork orange herbacide.
Feels like it's raining all the time.
Suggest correction
Give kudos to tab author, rate the tab!
1 2 3 4 5
comments
print report bad tab
guest
You may want to rate the tab now too:
select rating
Wanna post a correction for this tab? Suggest correction