Oops, an error
Loading. Please wait.

Poison Tab

version 1
version 1

Whole song

Interactive

868 views 3 this week
1 commentread comment
1 2 3 4 5
worth learning
x 5
add to favorites
launch autoscroll
font size
0
reset
how to read this tab
guitar tuner
Tab Pro tools
  • play this tab
  • loop segment
  • change instrument
  • show fretboard
  • metronome
Autoscroll
slow
fast
+/-
esc
set tempo
stop
Song: Poison
Album: Crimson
Band: Alakline Trio
Tabber: Calum Neil (afirock74@hotmail.com)

.  - palm mute
/  - slide up and down to
b  - Bend
() - Natural harmonics
*  - Pinch harmonics
h  - Hammer
p  - Pull off
"  - Tremolo Picking
x  - Mute

Intro/Riff:
e|-------------------------------------------------|
B|----7-6-5---------6/7/6-5---------6/7/6-5--------|
G|---------7---4-7---------7-6-4-7---------7/6--4--|
D|-------------------------------------------------|
A|-------------------------------------------------|
E|-------------------------------------------------|

Verse:
e|--------------------------------------|
B|--------------------------------------|
G|-4-4-4-4--2-2-2-2---------------------|
D|-4-4-4-4--2-2-2-2--4-4-4-4--5-5-5-5---| x4
A|-2-2-2-2--0-0-0-0--4-4-4-4--5-5-5-5---|
E|-------------------2-2-2-2--3-3-3-3---|

Verse2:
e|---------------|-----------------------------|
B|---------------|-----------------------------|
G|---------------|-7-7-7-7---------------------|
D|-7-7-7-7-7-7-7-|-7-7-7-7--7-7-7-7--5-5-5-5---| x3
A|-7-7-7-7-7-7-7-|-5-5-5-5--7-7-7-7--5-5-5-5---|
E|-5-5-5-5-5-5-5-|----------5-5-5-5--3-3-3-3---|

e|--------------------|
B|--------------------|
G|--------------------|
D|-4-4-4-4-4-4-4-4-4--|
A|-4-4-4-4-4-4-4-4-4--|
E|-2-2-2-2-2-2-2-2-2--|

Riff again then back to Verse:

Chorus:
e|-------------------------------------|
B|-------------------------------------|
G|-4-4-4-4--7-7-7-7--------------------|
D|-4-4-4-4--7-7-7-7--5-5-5-5--7-7-7-7--| x3
A|-2-2-2-2--5-5-5-5--5-5-5-5--7-7-7-7--|
E|-------------------3-3-3-3--5-5-5-5--|

Chorus2:
e|------------------------------------------------|
B|------------------------------------------------|
G|-4-4-4-4--7-7-7-7-------------------------------|
D|-4-4-4-4--7-7-7-7--4-4-4-4-4-4-4--5-5-5-5-5-5-5-|
A|-2-2-2-2--5-5-5-5--4-4-4-4-4-4-4--5-5-5-5-5-5-5-|
E|-------------------2-2-2-2-2-2-2--3-3-3-3-3-3-3-|

Back To Verse2:

Ends on chorus1 and Riff

End
e|----|
B|----|
G|-4--|
D|-4--|
A|-2--|
E|----|
comments
print report bad tab
1 comment total.
0 reply
nrlsky wrote on May 19 2008, 10:13 pm

Intro is way off. Everyone go to version 3

I want to post or [tab]
guest
You may want to rate the tab now too:
select rating
Please do not post tabs as comments. Select "correction" instead!