Oops, an error
Loading. Please wait.

Poison Tab

version 3
version 3

Whole song

Interactive

2,743 views 9 this week
4 commentsread comments
1 2 3 4 5
accurate
x 6
add to favorites
launch autoscroll
font size
0
reset
how to read this tab
guitar tuner
Autoscroll
slow
fast
+/-
esc
set tempo
stop
Help us to improve Ultimate-Guitar.com Take our survey!
×
Author
(The) Poison - Alkaline Trio
Album: Crimson

Intro
------------------------------|-----------------------------------|
-----5-7-6-5---------5-7-6-5--|----5-7-6-5---------5-7-6-5---5----|
-4-7---------7-4-4-7---------7|-7-4---------7-4-4-7---------7-4---|
------------------------------|-----------------------------------|
------------------------------|-----------------------------------|
------------------------------|-----------------------------------|
Played In Background Of Intro
---------------------|----------------------|
---------------------|----------------------|
-4444-4444-4444-444--|-4444-4444-4444-12/---|
-4444-4444-4444-444--|-4444-4444-4444-12/---|
-2222-2222-2222-222--|-2222-2222-2222-12/---|
(Note: Blocks of chords played with no gaps between I just always found
it easier to count them off as blocks of four or less, Also the slide at the
end may not be the exact slide but I'm not great at slides and its the closest
I could find)

Verse
---------------------|--------------------|----------|
---------------------|--------------------|----------|
-4444-2222-----------|-4444-2222----------|----------|
-4444-2222-4444-5555-|-4444-2222-44444444-|-77777777-|
-2222-0000-4444-5555-|-2222-0000-44444444-|-77777777-|
-----------2222-3333-|-----------22222222-|-55555555-|
        X3 then ---->

Chorus
--------------------|------------------|--------------------------------------|
--------------------|------------------|--------------------------------------|
-7777---------------|------------------|--------------------------------------|
-7777-7777-55555555-|-4444444444444444-|--------------------------------------|
-5555-7777-55555555-|-4444444444444444-|--------------------------------------|
------5555-33333333-|-2222222222222222-|--------------------------------------|
         X3 then--->

Bridge
---------------------|--------------------------------------------------------|
---------------------|--------------------------------------------------------|
-4444-7777-----------|-4444-7777----------------------------------------------|
-4444-7777-4444-5555-|-4444-7777-44444444-55555555----------------------------|
-2222-5555-4444-5555-|-2222-5555-44444444-55555555----------------------------|
-----------2222-3333-|-----------22222222-33333333----------------------------|
         X3 then---->


Outro
-----------------|------------------|
-----5-7-6-5-----|------------------|
-4-7---------7-4-|-4----6-------7---|
-----------------|------------------|
-----------------|------------------|
-----------------|------------------|
    X7 Then ------------------------|
Played In Background On Outro
---------------------|----------------------------|
---------------------|----------------------------|
-4444-2222-----------|-4444-2222------------------|
-4444-2222-4444-5555-|-4444-2222-4----5--------9--|
-2222-0000-4444-5555-|-2222-0000-4----5--------9--|
-----------2222-3333-|-----------2----3--------7--|
       X3 Then -----------------------------------|


(Note: Final 3 notes on Outro and final 3 chords in Outro Background are played
at the same time.)

Intro
Verse
Chorus
Intro (w/alternate chords see bottom)
Verse
Chorus
Bridge
Chorus
Outro

Chords played in background of the Intro riff when played each time after the intro
---------------------|-----------------------|
---------------------|-----------------------|
---------------------|-----------------------|
-4444-4444-4444-444--|-4444-4444-4444-4444---|
-4444-4444-4444-444--|-4444-4444-4444-4444---|
-2222-2222-2222-222--|-2222-2222-2222-2222---|
Suggest correction
comments
print report bad tab
4 comments total. Showing first comments.
0 reply
BreakingTheGirl 102 wrote on February 16 2006, 04:06 pm

this is wrong... the intro is reall of

but the verse and chorus or like halfway right

0 reply
nrlsky 180 wrote on May 19 2008, 10:13 pm

It's not that wrong. The intro is fairly close. It's definitely usable, compared to the other shit tabs it's gold, so I gave it 5 stars :-D

0 reply
Matthehopeless 10 wrote on May 22 2008, 12:05 pm

the intro is almost there. try at the end instead of 7-4, 7-6

guest
You may want to rate the tab now too:
select rating
Please do not post tabs as comments. Select "correction" instead!