Oops, an error
Loading. Please wait.

Poison Tab

version 4
version 4

Whole song

Interactive

134 views 1 this week
no commentswrite comment
1 2 3 4 5
please rate
add to favorites
launch autoscroll
font size
0
reset
how to read this tab
guitar tuner
Autoscroll
slow
fast
+/-
esc
set tempo
stop
Help us to improve Ultimate-Guitar.com Take our survey!
×
---------------------
The Poison
Alkaline Trio
Crimson
Tab by SilverDolphin
---------------------
Standard Tuning EADGBe

Intro (0:00 - 0:07)

Guitar 1
e|-----------------------------------------------------------------|
B|-----6-7-6-----------6-7-6----------6-7-6-----------6-7-6--------|
G|---7-------9-7-6---7-------9-7----7-------9-7-6---7-------9-7-6-4|
D|-9---------------9--------------9---------------9----------------|
A|-----------------------------------------------------------------|
E|-----------------------------------------------------------------|

Guitar 2
   B5
e|------------------|
B|------------------| X4
G|-4-4-4-4-4-4-4-4--|
D|-4-4-4-4-4-4-4-4--|
A|-2-2-2-2-2-2-2-2--|
E|------------------|

Verse (0:07 - 0:21)

Guitar 1 & 2
   B5   A5   F#5  G5  X3  Last time
e|---------------------|-------------------------------|
B|---------------------|-------------------------------|
G|-4444-2222-----------|-4444-2222---------------------|
D|-4444-2222-4444-5555-|-4444-2222-4444-4444-5555-5555-|
A|-2222-0000-4444-5555-|-2222-0000-4444-4444-5555-5555-|
E|-----------2222-3333-|-----------2222-2222-3333-3333-|

Chorus (0:22 - 0:35)

Guitar 1                              X3  Then
e|--------------------------------------|----------------------------------|
B|--------------------------------------|----------------------------------|
G|-14-14-14-14-9-9-9-9-7-7-7-7-7-7-7-7--|----------------------------------|
D|-xx-xx-xx-xx-x-x-x-x-x-x-x-x-x-x-x-x--|----------------------------------|
A|-12-12-12-12-7-7-7-7-5-5-5-5-5-5-5-5--|-4-4-4-4-4-4-4-4-4-4-4-4-4-4-4-4--|
E|--------------------------------------|-2-3-2-3-2-3-2-3-2-2-2-2-2-2-2-2--|

Guitar 2
   D5      A5      G5             X3  Then
e|----------------------------------|------------------------------------|
B|----------------------------------|------------------------------------|
G|-7-7-7-7--------------------------|------------------------------------|
D|-7-7-7-7-7-7-7-7-5-5-5-5-5-5-5-5--|------------------------------------|
A|-5-5-5-5-7-7-7-7-5-5-5-5-5-5-5-5--|-4-4-4-4-4-4-4-4-4-4-4-4-4-4-4-4-4--|
E|---------5-5-5-5-3-3-3-3-3-3-3-3--|-2-3-2-3-2-3-2-3-2-2-2-2-2-2-2-2-2--|

Interlude {Intro} (0:35 - 0:41)

Guitar 1
e|-----------------------------------------------------------------|
B|-----6-7-6-----------6-7-6----------6-7-6-----------6-7-6--------|
G|---7-------9-7-6---7-------9-7----7-------9-7-6---7-------9-7-6-4|
D|-9---------------9--------------9---------------9----------------|
A|-----------------------------------------------------------------|
E|-----------------------------------------------------------------|

Guitar 2
   B5
e|------------------|
B|------------------| X4
G|-4-4-4-4-4-4-4-4--|
D|-4-4-4-4-4-4-4-4--|
A|-2-2-2-2-2-2-2-2--|
E|------------------|

Verse (0:42 - 0:56)

Guitar 1 & 2
   B5   A5   F#5  G5  X3  Last time
e|---------------------|-------------------------------|
B|---------------------|-------------------------------|
G|-4444-2222-----------|-4444-2222---------------------|
D|-4444-2222-4444-5555-|-4444-2222-4444-4444-5555-5555-|
A|-2222-0000-4444-5555-|-2222-0000-4444-4444-5555-5555-|
E|-----------2222-3333-|-----------2222-2222-3333-3333-|

Chorus (0:57 - 1:10)

Guitar 1                              X3  Then
e|--------------------------------------|----------------------------------|
B|--------------------------------------|----------------------------------|
G|-14-14-14-14-9-9-9-9-7-7-7-7-7-7-7-7--|----------------------------------|
D|-xx-xx-xx-xx-x-x-x-x-x-x-x-x-x-x-x-x--|----------------------------------|
A|-12-12-12-12-7-7-7-7-5-5-5-5-5-5-5-5--|-4-4-4-4-4-4-4-4-4-4-4-4-4-4-4-4--|
E|--------------------------------------|-2-3-2-3-2-3-2-3-2-2-2-2-2-2-2-2--|

Guitar 2
   D5      A5      G5             X3  Then
e|----------------------------------|------------------------------------|
B|----------------------------------|------------------------------------|
G|-7-7-7-7--------------------------|------------------------------------|
D|-7-7-7-7-7-7-7-7-5-5-5-5-5-5-5-5--|------------------------------------|
A|-5-5-5-5-7-7-7-7-5-5-5-5-5-5-5-5--|-4-4-4-4-4-4-4-4-4-4-4-4-4-4-4-4-4--|
E|---------5-5-5-5-3-3-3-3-3-3-3-3--|-2-3-2-3-2-3-2-3-2-2-2-2-2-2-2-2-2--|


Bridge (1:10 - 1:24)

Guitar 1 & 2
   B5   D5   G5   A5 X3 Last time
e|---------------------|--------------------------------|
B|---------------------|--------------------------------|
G|-4444-7777------2222-|-4444-7777----------------------|
D|-4444-7777-5555-2222-|-4444-7777-4444-4444-5555-5555--|
A|-2222-5555-5555-0000-|-2222-5555-4444-4444-5555-5555--|
E|-----------3333------|-----------2222-2222-3333-3333--|

Chorus (1:25 - 1:38)

Guitar 1                              X3  Then
e|--------------------------------------|----------------------------------|
B|--------------------------------------|----------------------------------|
G|-14-14-14-14-9-9-9-9-7-7-7-7-7-7-7-7--|----------------------------------|
D|-xx-xx-xx-xx-x-x-x-x-x-x-x-x-x-x-x-x--|----------------------------------|
A|-12-12-12-12-7-7-7-7-5-5-5-5-5-5-5-5--|-4-4-4-4-4-4-4-4-4-4-4-4-4-4-4-4--|
E|--------------------------------------|-2-3-2-3-2-3-2-3-2-2-2-2-2-2-2-2--|

Guitar 2
   D5      A5      G5             X3  Then
e|----------------------------------|------------------------------------|
B|----------------------------------|------------------------------------|
G|-7-7-7-7--------------------------|------------------------------------|
D|-7-7-7-7-7-7-7-7-5-5-5-5-5-5-5-5--|------------------------------------|
A|-5-5-5-5-7-7-7-7-5-5-5-5-5-5-5-5--|-4-4-4-4-4-4-4-4-4-4-4-4-4-4-4-4-4--|
E|---------5-5-5-5-3-3-3-3-3-3-3-3--|-2-3-2-3-2-3-2-3-2-2-2-2-2-2-2-2-2--|

Outro (1:38 - )

Guitar 1          X6 Then
e|-----------------|-------------|
B|-----6-7-6-------|-------------|
G|---7-------9-7-6-|-4~-6~~-7~~--|
D|-9---------------|-------------|
A|-----------------|-------------|
E|-----------------|-------------|

Guitar 2
   B5     D5       G5      A5     X3 Last time 
e|---------------------------------|-----------------------------|
B|---------------------------------|-----------------------------|
G|-4-4-4-4-7-7-7-7---------2-2-2-2-|-4-4-4-4-7-7-7-7-------------|
D|-4-4-4-4-7-7-7-7-5-5-5-5-2-2-2-2-|-4-4-4-4-7-7-7-7-5~-7~~-9~~--|
A|-2-2-2-2-5-5-5-5-5-5-5-5-0-0-0-0-|-2-2-2-2-5-5-5-5-5~-7~~-9~~--|
E|-----------------3-3-3-3---------|-----------------3~-5~~-7~~--|


**************
~  Let ring
x  Mute note
**************

Suggest correction
Give kudos to tab author, rate the tab!
1 2 3 4 5
comments
print report bad tab
guest
You may want to rate the tab now too:
select rating
Please do not post tabs as comments. Select "correction" instead!