Oops, an error
Loading. Please wait.

Private Eye Tab

version 1
version 1
40,385 views 63 this week
7 commentsread comments
1 2 3 4 5
accurate
x 22
add to favorites
launch autoscroll
font size
0
reset
how to read this tab
guitar tuner
Autoscroll
slow
fast
+/-
esc
set tempo
stop
Help us to improve Ultimate-Guitar.com Take our survey!
×
Author
-------------------------------------------------------------------------------
Private Eye – Alkaline Trio
-------------------------------------------------------------------------------

There you have it another song by the mighty Alkaline Trio

INTRO   
e|------------------------------------------------------------------|
B|------------------------------------------------------------------|
G|-1212121212-11111111-141414141414-1212121212----------------------|
D|-x-x-x-x-x--xxxxxxx--x-x-x-x-x-x--x-x-x-x-x--9999-101010----------|
A|-1010101010-9999999--121212121212-1010101010-9999-101010----------|
E|---------------------------------------------7777-88888-----------|

VERSE
e|--------------------------------------------------------------|
B|--------------------------------------------------------------|
G|--------------------------------------------------------------|
D|--------------------------------------------------------------|
A|-10101010-99999999-121212121212-1010101010-999999-101010------|
E|-------------------------------------------777777-888888------|
   ******** ******** ************ ********** ****** ****** 

CHORUS
e|-------------------------------------------------------------------|
B|-------------------------------------------------------------------|
G|------------4444444-7777777-------------9999999-7777777------------|
D|-555555555--4444444-7777777-5555555555--9999999-7777777------------|
A|-555555555--2222222-5555555-5555555555--7777777-5555555------------|
E|-333333333------------------3333333333-----------------------------|

PRE INTERLUDE
e|--------------------------------------------|
B|--------------------------------------------|
G|-555555555555--7777777777-------------------|
D|-555555555555--7777777777-------------------|
A|-333333333333--5555555555-------------------|
E|--------------------------------------------|

INTERLUDE
e|-------------------------------------------------------|
B|-------------------------------------------------------|
G|-12121212-111111-1414141414-121212121212---------------|
D|-xxxxxxxx-xxxxxx-xxxxxxxxxx-xxxxxxxxxxxx---------------|
A|-10101010-999999-1212121212-101010101010---------------|
E|-------------------------------------------------------|

SONG OUTLINE!

INTRO x 4
VERSE x 4
INTRO x 2
VERSE x 4
CHORUS x 2
INTRO x 2
VERSE x 2 (bass plays the first half od the verse on it’s own!)
CHORUS x 2
PRE INTERLUDE
INTERLUDE x 4
CHORUS x 2

===============================================================================
Suggest correction
What's this?
You can suggest a correction to this tab. Community and Mods will review your correction and vote to approve or reject it.
comments
print report bad tab
7 comments total. Showing first comments.
0 reply
Blankapeeto 226 wrote on February 29 2004, 12:00 am

good tabbing. perfect

0 reply
explodingboy 19 wrote on March 31 2004, 12:00 am

if you see matt play the chorus live its more like this...
(all downstrokes obviously)
-------------------------------------------------------------------------
-------------------------------------------------------------------------
-----------------------------------------7-------------------------------
--12--------------9--------------------7-----------------------------------
--10--------------9 -------------------5------------------------------------
--10--------------7---------------------------------------------------------
right place.. deadwrong...... just fine...

-------------------------------------------------------------------------
-------------------------------------------------------------------------
------------------------9-----------7----------------------------
---12------------------9-----------7--------------------------------
---10------------------7-----------5--------------------------------
---10----------------------------------------------------------------------
wont havta quit.. ne1 but me.....

apart from that its perfect

0 reply
182degrees 35 wrote on December 4 2004, 12:00 am

Wot happens in the 2nd verse wen chords are played open instead of the PMin? I dono wot to play for them?

guest
You may want to rate the tab now too:
select rating
Please do not post tabs as comments. Select "correction" instead!