Oops, an error
Loading. Please wait.

Radio Tab

version 1
version 1

Whole song

Interactive

207,293 views 270 this week
37 commentsread comments
1 2 3 4 5
x 92
add to favorites
launch autoscroll
font size
0
reset
how to read this tab
guitar tuner
Autoscroll
slow
fast
+/-
esc
set tempo
stop
Help us to improve Ultimate-Guitar.com Take our survey!
×
[Intro]

e|-------------------------------------------------------------------------------------|
B|-------------------------------------------------------------------------------------|
G|--------11------11------9------7------9-11-------11-------11------------9------9-----|
D|---0-0-----0-0-----0-0---0-0----0-0--------9-9------9-9------9-0--7-7---7---7--7-----|  
A|-------------------------------------------------------------------------------0-----|
E|-------------------------------------------------------------------------------------|
                                                                                         x2  
e|-------------------------------------------------------------------------------------|
B|-------------------------------------------------------------------------------------|
G|--------11------11------9------7------9-11-------11-------11---------9---------------|
D|---0-0-----0-0-----0-0--- 0-0----0-0--------9-9------9-9------9-0--7-----------------|
A|------------------------------------------------------------------------0------------|
E|-------------------------------------------------------------------------------------|


[Verse Progression] 

e|----------------------------------------------------------------------------------------------|
B|7--7--7--7--7--7--7--7------------------------------------------------------------------------|
G|7--7--7--7--7--7--7--7--9--9--9--9---7--7--7--7-----------------------------------------------| x3
D|7--7--7--7--7--7--7--7--7--7--7--7---7--7--7--7-9--9--9--9--9--9--9--9--7--7--7--7--7--7--7--7|
A|5--5--5--5--5--5--5--5--5--5--5--5---5--5--5--5-9--9--9--9--9--9--9--9--7--7--7--7--7--7--7--7|
E|------------------------------------------------7--7--7--7--7--7--7--7--5--5--5--5--5--5--5--5|


[Verse Progression the fourth time through] 

e|----------------------------------------------------------------------------------------------|
B|----------------------------------------------------------------------------------------------|
G|----------------------------------------------------------------------------------------------|
D|----9--9--9--9--9--9--9--9---7--7--7--7--7--7--7--7--5--5--5--5--5--5--5--5--5--5--5--5--7----| 
A|----9--9--9--9--9--9--9--9---7--7--7--7--7--7--7--7--5--5--5--5--5--5--5--5--5--5--5--5--7----|
E|----7--7--7--7--7--7--7--7---5--5--5--5--5--5--5--5--3--3--3--3--3--3--3--3--3--3--3--3--5----|

\"if Columbus was wrong, I'd drive straight off the edge....\"


[Play Intro Again]


[Second Verse]


[Chorus]

e|--------------------------------------------------------------------------------------------------|
B|--------------------------------------------------------------------------------------------------|
G|--7--7--7--7--7--7--7--7--------------------------7--7--7--7--7--7--7--7--------------------------|
D|--7--7--7--7--7--7--7--7--7--7--7--7--7--7--7--7--7--7--7--7--7--7--7--7---9--9--9--9--7--7--7--7-|
A|--5--5--5--5--5--5--5--5--7--7--7--7--7--7--7--7--5--5--5--5--5--5--5--5---9--9--9--9--7--7--7--7-|
E|--------------------------5--5--5--5--5--5--5--5---------------------------7--7--7--7--5--5--5--5-|


e|-----------------------------------------------------------------------|
B|-----------------------------------------------------------------------|
G|7-7-7-7-7-7-7-7-------------------7-7-7-7-7-7-7------------------------| 
D|7-7-7-7-7-7-7-7-7-7-7-7-7-7-7-7-7-7-7-7-7-7-7-7-9-9-9-9-7-7-7-7-5-5-5-5|
A|5-5-5-5-5-5-5-5-7-7-7-7-7-7-7-7-5-5-5-5-5-5-5-5-9-9-9-9-7-7-7-7-5-5-5-5|
E|------------------5-5-5-5-5-5-5-5---------------7-7-7-7-5-5-5-5-3-3-3-3|


e|-----------------------------------------------------------------|
B|-----------------------------------------------------------------|
G|-----------------------------------------------------------------|
D|--5--5--5--5--5--5--5--5--5--5--5--5--5--5--5--5--5--5--5--5--7--|
A|--5--5--5--5--5--5--5--5--5--5--5--5--5--5--5--5--5--5--5--5--7--|
E|--3--3--3--3--3--3--3--3--3--3--3--3--3--3--3--3--3--3--3--3--5--|


[Play Intro Again]


[First Verse Repeated]


[Chorus]


[Play Intro]

And thats about it, at the end there he does some variations of the intro 
picking part but nothing too hard.  I just don't wanna take the time to tab it.

Lyrics:
Shakin' like a dog shittin razor blades
wakin' up next to nothing
after dreaming of you and me i'm waking up all alone,
waking up so relieved
While you're takin' your time with apologies
i'm making my plans for revenge
red eyes on orange horizon,
if Columbus was wrong i'd drive straight off the edge.

Takin' your own life with bordom,
i'm taking my own life with wine.
it helps you to rule out the sorrow,
it helps me to empty my mind
making the most of a bad time,
i'm smoking the brains from my head
leaving the coal calling the kettle black, orange and red
this kettle is seeing red.

I've got a big fat fucking bone to pick with you my darling
in case you haven't heard im sick and tired of trying
i wish you would take my radio to bathe with you
plugged in and ready to fall. 
Suggest correction
comments
print report bad tab
37 comments total. Showing first comments.
0 reply
clindner 10 Dec 30, 2001 12:00 AM

Looks good, now you or somebody else should tab f**k you aurora! its easy but it would be a good one to get on here.

0 reply
enjoi_sk8er_13 0 Jan 20, 2002 12:00 AM

Yeah, Fuck You Aurora is a great song. I have the chords I might put them up soon...Joe (the same guy that submitted Radio)

0 reply
Ahmed Kafouri 0 Mar 29, 2002 12:00 AM

cool tab dude!! can sum 1 get a tab on here for another innocent girl

guest
You may want to rate the tab now too:
select rating
Wanna post a correction for this tab? Suggest correction