Oops, an error
Loading. Please wait.

Radio Bass Tab

version 3
version 3

Whole song

Interactive

2,333 views 3 this week
no commentswrite comment
1 2 3 4 5
worth learning
x 2
add to favorites
launch autoscroll
font size
0
reset
guitar tuner
Tab Pro tools
  • play this tab
  • loop segment
  • change instrument
  • show fretboard
  • metronome
Autoscroll
slow
fast
+/-
esc
set tempo
stop
Contributor
Difficulty
novice
----------------------------------------------------------------------------
Radio- Alkaline Trio
----------------------------------------------------------------------------

Tabbed By : zak_dun
e-mail: zak_dun@yahoo.com

Tuning: standard

intro x2

G|-------11-----11-----9------7-----7h9-----11-----11----------------|
D|---0-0----0-0----0-0----0-0---0-0-----9-9----9-9----9-0--7-7-7-7-7-|
A|-------------------------------------------------------------------|
E|-------------------------------------------------------------------|

G|--------11------11------9------7------9-11------11------11---------9------|
D|---0-0-----0-0-----0-0--- 0-0----0-0-------9-9------9-9-----9-0--7--------|
A|-----------------------------------------------------------------------0--|
E|--------------------------------------------------------------------------|

Verse  x3

G|-----------------------------------------------------------------|
D|-----------------------------------------------------------------|
A|-5-5-5-5-5-5-5-5-5-5-5-5-5-5-5-5---------------------------------|
E|----------------------------------7-7-7-7-7-7-7-7-5-5-5-5-5-5-5-5|

Verse the 4th time

G|----------------------------------------------------------|
D|----------------------------------------------------------|
A|----------------------------------------------------------|
E|-7-7-7-7-7-7-7-7-5-5-5-5-5-5-5-5-3-3-3-3-3-3-3-3-3-3-3-3-5|

intro x2 again

G|-------11-----11-----9------7-----7h9-----11-----11----------------|
D|---0-0----0-0----0-0----0-0---0-0-----9-9----9-9----9-0--7-7-7-7-7-|
A|-------------------------------------------------------------------|
E|-------------------------------------------------------------------|

G|--------11------11------9------7------9-11------11------11---------9------|
D|---0-0-----0-0-----0-0--- 0-0----0-0-------9-9------9-9-----9-0--7--------|
A|-----------------------------------------------------------------------0--|
E|--------------------------------------------------------------------------|


Verse  x3

G|-----------------------------------------------------------------|
D|-----------------------------------------------------------------|
A|-5-5-5-5-5-5-5-5-5-5-5-5-5-5-5-5---------------------------------|
E|----------------------------------7-7-7-7-7-7-7-7-5-5-5-5-5-5-5-5|

Verse the 4th time

G|----------------------------------------------------------|
D|----------------------------------------------------------|
A|----------------------------------------------------------|
E|-7-7-7-7-7-7-7-7-5-5-5-5-5-5-5-5-3-3-3-3-3-3-3-3-3-3-3-3-5|


Chorus

G|----------------------------------------------------------------|
D|----------------------------------------------------------------|
A|-5-5-5-5-5-5-5-5-----------------5-5-5-5-5-5-5-5----------------|
E|-----------------5-5-5-5-5-5-5-5-----------------7-7-7-7-5-5-5-5|

G|------------------------------------------------------------------------|
D|------------------------------------------------------------------------|
A|-5-5-5-5-5-5-5-5-----------------5-5-5-5-5-5-5-5------------------------|
E|-----------------5-5-5-5-5-5-5-5-----------------7-7-7-7-5-5-5-5-3-3-3-3|

G|------------------------------------------|
D|------------------------------------------|
A|------------------------------------------|
E|-3-3-3-3-3-3-3-3-3-3-3-3-3-3-3-3-3-3-3-3-5|

intro x2 again

G|-------11-----11-----9------7-----7h9-----11-----11----------------|
D|---0-0----0-0----0-0----0-0---0-0-----9-9----9-9----9-0--7-7-7-7-7-|
A|-------------------------------------------------------------------|
E|-------------------------------------------------------------------|

G|--------11------11------9------7------9-11------11------11---------9------|
D|---0-0-----0-0-----0-0--- 0-0----0-0-------9-9------9-9-----9-0--7--------|
A|-----------------------------------------------------------------------0--|
E|--------------------------------------------------------------------------|

Verse  x3

G|-----------------------------------------------------------------|
D|-----------------------------------------------------------------|
A|-5-5-5-5-5-5-5-5-5-5-5-5-5-5-5-5---------------------------------|
E|----------------------------------7-7-7-7-7-7-7-7-5-5-5-5-5-5-5-5|

Chorus

G|----------------------------------------------------------------|
D|----------------------------------------------------------------|
A|-5-5-5-5-5-5-5-5-----------------5-5-5-5-5-5-5-5----------------|
E|-----------------5-5-5-5-5-5-5-5-----------------7-7-7-7-5-5-5-5|

G|------------------------------------------------------------------------|
D|------------------------------------------------------------------------|
A|-5-5-5-5-5-5-5-5-----------------5-5-5-5-5-5-5-5------------------------|
E|-----------------5-5-5-5-5-5-5-5-----------------7-7-7-7-5-5-5-5-3-3-3-3|

G|------------------------------------------|
D|------------------------------------------|
A|------------------------------------------|
E|-3-3-3-3-3-3-3-3-3-3-3-3-3-3-3-3-3-3-3-3-5|


intro x2 again

G|-------11-----11-----9------7-----7h9-----11-----11----------------|
D|---0-0----0-0----0-0----0-0---0-0-----9-9----9-9----9-0--7-7-7-7-7-|
A|-------------------------------------------------------------------|
E|-------------------------------------------------------------------|

G|--------11------11------9------7------9-11------11------11---------9------|
D|---0-0-----0-0-----0-0--- 0-0----0-0-------9-9------9-9-----9-0--7--------|
A|-----------------------------------------------------------------------0--|
E|--------------------------------------------------------------------------|

h=hammer on
comments
We did not receive enough feedback on this tab! Please rate:
print report bad tab
1 2 3 4 5
I want to post or [tab]
guest
You may want to rate the tab now too:
select rating
Please do not post tabs as comments. Select "correction" instead!