Oops, an error
Loading. Please wait.

Ruin It Bass Tab

1,767 views 1 this week
2 commentsread comments
1 2 3 4 5
accurate
x 4
add to favorites
launch autoscroll
font size
0
reset
guitar tuner
Autoscroll
slow
fast
+/-
esc
set tempo
stop
Help us to improve Ultimate-Guitar.com Take our survey!
×
Author
Band: Alkaline Trio
Album: Agony And Irony
Song: Ruin It

Please rate

Comments and corrections welcome

Intro 0:06

G|----------|
D|-5--------| 
A|---6-5-3--| x4
E|----------|

Verse 0:11

G|----------------------------------|
D|----------------------------------| 
A|-33-------------------------------|
E|-----------------1~---------------|

G|----------------------------------|
D|----------------------------------| 
A|-33------------------2---5---6----|
E|-----------------3----------------|

G|----------------------------------|
D|----------------------------------| 
A|-33-------------------------------|
E|-----------------1~---------------|

G|----------------------------------|
D|----------------------------------| 
A|----------------------------------|
E|-3---------------1-------3--------|

G|----------|
D|-5--------| 
A|---6-5-3--| x4
E|----------|

Verse 2 0:39

G|----------------------------------|
D|-------------------------3--------| 
A|-3333333333333333------------1----|
E|-----------------11111111---------|

G|----------------------------------|
D|--------1-------------------------| 
A|-3333333-----3-------22225555666--|
E|-----------------3333-------------|

G|----------------------------------|
D|--------1--------333333336---3----| 
A|-3333333-----3--------------------|
E|----------------------------------|

G|----------------------------------|
D|--------1-------------------------| 
A|-3333333-----3-------22225555666--|
E|-----------------3333-------------|

Pre-chorus 1:02

G|----------------------------------|
D|----------------------------------| 
A|----------------------------------|
E|-4444444444444444666666666666-6-7-|

Chorus 1:08

G|----------------------------------|
D|----------------------------------| 
A|-33333333--------1111111111111111-| x3
E|---------33333333-----------------|

G|----------------------------------|
D|----------------------------------| 
A|-----------------11111111---------|
E|-1111111111111111--------33333333-|

Interlude 1:31

G|----------------------------------|
D|----------------------------------| 
A|-3---33--33--33-------------------|
E|-----------------1---11--11--11---|

G|----------------------------------|
D|----------------------------------| 
A|-3---33--33--33-------------------|
E|-----------------3---33--33--33---|

Verse 3 1:42 x2

G|----------------------------------|
D|----------------------------------| 
A|-3333333333333333-----------------|
E|-----------------1111111111111111-|

G|----------------------------------|
D|----------------------------------| 
A|-3333333333333333-----------------|
E|-----------------3333333333333333-|

Pre-chorus 2:05

G|----------------------------------|
D|----------------------------------| 
A|----------------------------------|
E|-4444444444444444666666666\-------|


Chorus 2:11

G|----------------------------------|
D|----------------------------------| 
A|-33333333--------1111111111111111-| x3
E|---------33333333-----------------|

G|----------------------------------|
D|----------------------------------| 
A|-----------------11111111---------|
E|-1111111111111111--------33333333-|

Bridge 2:33
 
G|----------------------------------|
D|----------------------------------| 
A|-----------------3333333333333333-|
E|-4444444444444444-----------------|

G|----------------------------------|
D|----------------------------------| 
A|-----------------11111111---------|
E|-4444444444444444--------11113333-|

G|----------------------------------|
D|----------------------------------| 
A|-----------------3333333333333333-|
E|-4444444444444444-----------------|

G|----------------------------------|
D|----------------------------------| 
A|-11111111111111111111111111112222-|
E|----------------------------------|

Chorus 2:56

G|----------------------------------|
D|----------------------------------| 
A|-33333333--------1111111111111111-| x3
E|---------33333333-----------------|

G|----------------------------------|
D|----------------------------------| 
A|-----------------11111111---------|
E|-1111111111111111--------33333333-|


Outro 3:19

G|----------------------------------|
D|----------------------------------| 
A|-----------------11111111---------|
E|-4444444444444444--------33333333-|

G|-----------|
D|-5---------| 
A|---6-5-2-3~|
E|-----------|
Suggest correction
comments
print report bad tab
2 comments total.
0 reply
spiff-corgi 811 wrote on July 22 2008, 08:14 am

i made an album tab, and my version of this is near damn identical to yours. sorry, but i honestly didn't know, as i refused to look at other people's tabs before i'd uploaded mine!
5* great tab

0 reply
kittens9 10 wrote on January 3 2014, 05:08 am

Bang on with this. great job dude.

guest
You may want to rate the tab now too:
select rating
Wanna post a correction for this tab? Suggest correction