Oops, an error
Loading. Please wait.

Sadie Bass Tab

version 1
version 1

Whole song

Interactive

2,596 views 15 this week
no commentswrite comment
1 2 3 4 5
accurate
x 5
add to favorites
launch autoscroll
font size
0
reset
guitar tuner
Tab Pro tools
  • play this tab
  • loop segment
  • change instrument
  • show fretboard
  • metronome
×
Best way to learn
"Sadie"
Autoscroll
slow
fast
+/-
esc
set tempo
stop
Difficulty
intermediate
Song Name: Sadie
Band Name: Alkaline Trio
Tabbed By: Jason Cowell 
e-mail: 

Note: Listen carfully for the rythmn...

Tuning:

Intro
G|-------------------------------------------------------------------------|
D|-------------------------------------------------------------------------|
A|-------------------------------------------------------------------------|
E|0*-0*-0--3---5--0-----3-3-5-5-0-0-0-0-33333333-55555555-0000000000000000-|

Verse 1
G|------------------------------------------------------------------------|
D|------------------------------------------------------------------------|
A|----------------------------------------------------33------------------|
E|3-3-3p---55p--0-0p--00-00--3-3-3p---55p--0-0p--000-0--00—3-3-3-3-5-5-5-5|

G|--------------------------------------------------------------|
D|--------------------------------------------------------------|
A|------------------------------------------00----------33333333|
E|0-0-0-0-0-0-0-0-3-3-3p---55p--0-0p--000-00---33333333---------|

Chorus
G|----------------------------------------------|
D|22222222--------------------------------------|
A|----------------------------------------------|
E|---------88888888\-33333333-55555555\-00000000|

G|-----------------------------------|
D|-----------------------------------|
A|-----------------------------------|
E|88888888\-33333333-5555555555555555|

G|---------------------------------------------------------------------|
D|---------------------------------------------------------------------|
A|---------------------------------------------------------------------|
E|33333333-55555555-0000000000000000-33333333-55555555-0000000000000000|

Verse 2
G|--------------------------------------------------------|
D|--------------------------------------------------------|
A|----------------------------------------------------33--|
E|3-3-3p---55p--0-0p--00-00--3-3-3p---55p--0-0p--000-0--00|

G|------------------------------------------------------------------|
D|------------------------------------------------------------------|
A|----------------------------------------------00----------33333333|
E|3333-5555-00000000--3-3-3p---55p--0-0p--000-00---33333333---------|



Chorus
G|-------------------------------------|
D|22222222-----------------------------|
A|-------------------------------------|
E|---------88888888\-33333333-55555555\|

G|------------------------------------|
D|------------------------------------|
A|------------------------------------|
E|00000000-88888888\-33333333-55555555|


Post-Chorus
G|-----------------------------------------------------------------|
D|-----------------------------------------------------------------|
A|-----------------------------------------------------------------|
E|77777777-88888888\-33333333-55555555\-00000000-88888888\-33333333|

G|------------------------|
D|------------------------|
A|------------------------|
E|555555555555555555555555|

Interlude
G|-------------------------------------------------------------------|
D|-------------------------------------------------------------------|
A|---------------------------------------------------3333333333333333|
E|3-3-3-3-7-7-7-7-0-0-0-0-3-3-3-3-33333333-0000-2222-----------------|

G|----------------------------------------------------------------------|
D|----------------------------------------------------------------------|
A|------------------3333333333333333--------------------3333333333333333|
E|33333333-00000000------------------33333333-0000-2222-----------------|

Bridge
G|----------------------------------|
D|----------------------------------|
A|55555555-22222222-----------------| 4x
E|------------------3333333333333333|

G|-------------------------------------|
D|-------------------------------------|
A|-------------------------------------| 4x
E|00000000-88888888\-33333333-55555555\|

Outro
G|------------------------------------|
D|------------------------------------|
A|------------------------------------|
E|55555555-3---5---0p-0p-0---3---5---0|

comments
print report bad tab
I want to post or [tab]
guest
You may want to rate the tab now too:
select rating
Please do not post tabs as comments. Select "correction" instead!