Oops, an error
Loading. Please wait.

Sadie Bass Tab

version 2
version 2

Whole song

Interactive

1,774 views 1 this week
no commentswrite comment
1 2 3 4 5
please rate
add to favorites
launch autoscroll
font size
0
reset
guitar tuner
Autoscroll
slow
fast
+/-
esc
set tempo
stop
Help us to improve Ultimate-Guitar.com Take our survey!
×
Author
Standard Tuning

Intro
G-----------------------------------------|
D-----------------------------------------|
A-7----7----7~----10~----12~----7~----555-|
E-----------------------------------------|

G-------------------------------------|
D-------------------------------------|
A-------------------77777777-77777777-|
E-33333333-55555555-------------------|

G-------------------------------------|
D-------------------------------------|
A-------------------77777777-77777555-|
E-33333333-55555555-------------------|

Verse
G-----------------------------|
D-----------------------------|
A-----------------------------|
E-333----55----000----00--000-|

G-----------------------------|
D-----------------------------|
A-------------------------555-|
E-333----55----000----0000----|

G-------------------------------------|
D-------------------------------------|
A-------------------------------------|
E-33333333-55555555-00000000-00000000-|

G-----------------------------------------------|
D-----------------------------------------------|
A-------------------------555-33333333-33333333-|
E-333----55----000----0000----------------------|

Chorus
G-------------------------------------|
D-------------------------------------|
A----------33333333----------55555555-|
E-00000000----------33333333----------|

G----------------------------------------------|
D----------------------------------------------|
A----------33333333----------55555555-55555555-|
E-00000000----------33333333-------------------|

Pre-Verse
G-----------------------------------------------------|
D-----------------------------------------------------|
A-1010101010101010-1212121212121212-77777777-77777777-|
E-----------------------------------------------------|

G-----------------------------------------------------|
D-----------------------------------------------------|
A-1010101010101010-1212121212121212-77777777-77777555-|
E-----------------------------------------------------|

Verse (same as before)

Chorus
G-------------------------------------|
D-------------------------------------| x2
A----------33333333----------55555555-|
E-00000000----------33333333----------|

G-------------------------------------|
D-------------------------------------|
A-77777777-33333333----------55555555-|
E-------------------33333333----------|

G-------------------------------------------------------|
D-------------------------------------------------------|
A-77777777-33333333----------55555555-55555555-55555555-|
E-------------------33333333----------------------------|

Bridge (it goes part 1-2-1-2-1-1-1-2)

Part 1
G---------------------------------------------|
D---------------------------------------------|
A-1010101010101010-77777777-33333333-33333333-|
E---------------------------------------------|

Part 2
G---------------------------------------------------------------|
D-----------------------------1010101010101010-1010101010101010-|
A-1010101010101010-7777991010-----------------------------------|
E---------------------------------------------------------------|

Chorus (no singing and different guitar parts)
G-------------------------------------|
D-------------------------------------| x2
A----------33333333----------55555555-|
E-00000000----------33333333----------|

G-------------------------------------|
D-----------45-45-5-------------------|
A----------3--3--3-----------55555555-|
E-00000000----------33333333----------|

G----------------------------------------------|
D-----------4542-------------------------------|
A----------3----532----------55555555-55555555-|
E-00000000----------33333333-------------------|

Ending
G------------------------------------------------|
D------------------------------------------------|
A-10~----12~----7----7----7~----10~----12~----7~-|
E---------------------------------------------0~-|
Suggest correction
What's this?
You can suggest a correction to this tab. Community and Mods will review your correction and vote to approve or reject it.
comments
We did not receive enough feedback on this tab! Please rate:
print report bad tab
1 2 3 4 5
guest
You may want to rate the tab now too:
select rating
Please do not post tabs as comments. Select "correction" instead!